  0
SECTION
  2
HEADER
  9
$ACADVER
  1
AC1009
  9
$DWGCODEPAGE
  3
dos932
  9
$INSBASE
 10
0.0
 20
0.0
 30
0.0
  9
$EXTMIN
 10
-130.1871337890625
 20
25.0345458984375
 30
1.0000000000000000E+20
  9
$EXTMAX
 10
835.9364013671875
 20
1259.234375
 30
-1.0000000000000000E+20
  9
$LIMMIN
 10
0.0
 20
0.0
  9
$LIMMAX
 10
12.0
 20
9.0
  9
$ORTHOMODE
 70
               0
  9
$REGENMODE
 70
               1
  9
$FILLMODE
 70
               1
  9
$QTEXTMODE
 70
               0
  9
$MIRRTEXT
 70
               1
  9
$DRAGMODE
 70
               2
  9
$LTSCALE
 40
20.569997151692707
  9
$OSMODE
 70
               0
  9
$ATTMODE
 70
               1
  9
$TEXTSIZE
 40
3.2000000000000002
  9
$TRACEWID
 40
0.05
  9
$TEXTSTYLE
  7
STANDARD
  9
$CLAYER
  8
0
  9
$CELTYPE
  6
CONTINUOUS
  9
$CECOLOR
 62
             256
  9
$DIMSCALE
 40
1.0
  9
$DIMASZ
 40
0.18
  9
$DIMEXO
 40
0.0625
  9
$DIMDLI
 40
0.38
  9
$DIMRND
 40
0.0
  9
$DIMDLE
 40
0.0
  9
$DIMEXE
 40
0.18
  9
$DIMTP
 40
0.0
  9
$DIMTM
 40
0.0
  9
$DIMTXT
 40
0.18
  9
$DIMCEN
 40
0.09
  9
$DIMTSZ
 40
0.0
  9
$DIMTOL
 70
               0
  9
$DIMLIM
 70
               0
  9
$DIMTIH
 70
               1
  9
$DIMTOH
 70
               1
  9
$DIMSE1
 70
               0
  9
$DIMSE2
 70
               0
  9
$DIMTAD
 70
               0
  9
$DIMZIN
 70
               0
  9
$DIMBLK
  1

  9
$DIMASO
 70
               1
  9
$DIMSHO
 70
               1
  9
$DIMPOST
  1

  9
$DIMAPOST
  1

  9
$DIMALT
 70
               0
  9
$DIMALTD
 70
               2
  9
$DIMALTF
 40
25.399999999999999
  9
$DIMLFAC
 40
1.0
  9
$DIMTOFL
 70
               0
  9
$DIMTVP
 40
0.0
  9
$DIMTIX
 70
               0
  9
$DIMSOXD
 70
               0
  9
$DIMSAH
 70
               0
  9
$DIMBLK1
  1

  9
$DIMBLK2
  1

  9
$DIMSTYLE
  2
STANDARD
  9
$DIMCLRD
 70
               0
  9
$DIMCLRE
 70
               0
  9
$DIMCLRT
 70
               0
  9
$DIMTFAC
 40
1.0
  9
$DIMGAP
 40
0.09
  9
$LUNITS
 70
               2
  9
$LUPREC
 70
               4
  9
$AXISMODE
 70
               0
  9
$AXISUNIT
 10
0.0
 20
0.0
  9
$SKETCHINC
 40
0.1
  9
$FILLETRAD
 40
0.0
  9
$AUNITS
 70
               0
  9
$AUPREC
 70
               0
  9
$MENU
  1
acad
  9
$ELEVATION
 40
0.0
  9
$PELEVATION
 40
0.0
  9
$THICKNESS
 40
0.0
  9
$LIMCHECK
 70
               0
  9
$BLIPMODE
 70
               1
  9
$CHAMFERA
 40
0.0
  9
$CHAMFERB
 40
0.0
  9
$SKPOLY
 70
               0
  9
$TDCREATE
 40
0.000000000
  9
$TDUPDATE
 40
0.000000000
  9
$TDINDWG
 40
0.0000000000
  9
$TDUSRTIMER
 40
0.0000000000
  9
$USRTIMER
 70
               1
  9
$ANGBASE
 50
0.0
  9
$ANGDIR
 70
               0
  9
$PDMODE
 70
               0
  9
$PDSIZE
 40
0.0
  9
$PLINEWID
 40
0.0
  9
$COORDS
 70
               1
  9
$SPLFRAME
 70
               0
  9
$SPLINETYPE
 70
               6
  9
$SPLINESEGS
 70
               8
  9
$ATTDIA
 70
               0
  9
$ATTREQ
 70
               1
  9
$HANDLING
 70
               1
  9
$HANDSEED
  5
6D3
  9
$SURFTAB1
 70
               6
  9
$SURFTAB2
 70
               6
  9
$SURFTYPE
 70
               6
  9
$SURFU
 70
               6
  9
$SURFV
 70
               6
  9
$UCSNAME
  2

  9
$UCSORG
 10
0.0
 20
0.0
 30
0.0
  9
$UCSXDIR
 10
1.0
 20
0.0
 30
0.0
  9
$UCSYDIR
 10
0.0
 20
1.0
 30
0.0
  9
$PUCSNAME
  2

  9
$PUCSORG
 10
0.0
 20
0.0
 30
0.0
  9
$PUCSXDIR
 10
1.0
 20
0.0
 30
0.0
  9
$PUCSYDIR
 10
0.0
 20
1.0
 30
0.0
  9
$USERI1
 70
               0
  9
$USERI2
 70
               0
  9
$USERI3
 70
               0
  9
$USERI4
 70
               0
  9
$USERI5
 70
               0
  9
$USERR1
 40
0.0
  9
$USERR2
 40
0.0
  9
$USERR3
 40
0.0
  9
$USERR4
 40
0.0
  9
$USERR5
 40
0.0
  9
$WORLDVIEW
 70
               1
  9
$SHADEDGE
 70
               3
  9
$SHADEDIF
 70
              70
  9
$TILEMODE
 70
               1
  9
$MAXACTVP
 70
              16
  9
$PINSBASE
 10
0.0
 20
0.0
 30
0.0
  9
$PLIMCHECK
 70
               0
  9
$PEXTMIN
 10
1.0000000000000000E+20
 20
1.0000000000000000E+20
 30
1.0000000000000000E+20
  9
$PEXTMAX
 10
-1.0000000000000000E+20
 20
-1.0000000000000000E+20
 30
-1.0000000000000000E+20
  9
$PLIMMIN
 10
0.0
 20
0.0
  9
$PLIMMAX
 10
12.0
 20
9.0
  9
$UNITMODE
 70
               0
  9
$VISRETAIN
 70
               0
  9
$PLINEGEN
 70
               0
  9
$PSLTSCALE
 70
               1
  9
$TREEDEPTH
 70
            3020
  0
ENDSEC
  0
SECTION
  2
TABLES
  0
TABLE
  2
VPORT
 70
               1
  0
VPORT
  2
*ACTIVE
 70
               0
 10
0.0
 20
0.0
 11
1.0
 21
1.0
 12
352.8746337890625
 22
642.13446044921875
 13
0.0
 23
0.0
 14
1.0
 24
1.0
 15
0.0
 25
0.0
 16
0.0
 26
0.0
 36
1.0
 17
0.0
 27
0.0
 37
0.0
 40
1246.5418273925782
 41
1.6912879999999999
 42
50.0
 43
0.0
 44
0.0
 50
0.0
 51
0.0
 71
               0
 72
             100
 73
               1
 74
               1
 75
               0
 76
               0
 77
               0
 78
               0
  0
ENDTAB
  0
TABLE
  2
LTYPE
 70
               5
  0
LTYPE
  2
CONTINUOUS
 70
              64
  3
Solid line
 72
              65
 73
               0
 40
0.0
  0
LTYPE
  2
DASHED
 70
              64
  3
DASHED
 72
              65
 73
               2
 40
0.75
 49
0.5
 49
-0.25
  0
LTYPE
  2
HIDDEN
 70
              64
  3
HIDDEN
 72
              65
 73
               2
 40
0.375
 49
0.25
 49
-0.125
  0
LTYPE
  2
CENTER
 70
              64
  3
CENTER
 72
              65
 73
               4
 40
2.0
 49
1.25
 49
-0.25
 49
0.25
 49
-0.25
  0
LTYPE
  2
PHANTOM
 70
              64
  3
PHANTOM
 72
              65
 73
               6
 40
2.5
 49
1.25
 49
-0.25
 49
0.25
 49
-0.25
 49
0.25
 49
-0.25
  0
ENDTAB
  0
TABLE
  2
LAYER
 70
               2
  0
LAYER
  2
0
 70
               0
 62
               7
  6
CONTINUOUS
  0
LAYER
  2
001
 70
               0
 62
               7
  6
CONTINUOUS
  0
ENDTAB
  0
TABLE
  2
STYLE
 70
               2
  0
STYLE
  2
STANDARD
 70
               0
 40
0.0
 41
1.0
 50
0.0
 71
               0
 42
0.2
  3
TXT
  4
BIGFONT
  0
STYLE
  2
TATEGAKI
 70
               4
 40
1.0
 41
1.0
 50
0.0
 71
               0
 42
0.2
  3
TXT
  4
BIGFONT
  0
ENDTAB
  0
TABLE
  2
VIEW
 70
               0
  0
ENDTAB
  0
TABLE
  2
UCS
 70
               0
  0
ENDTAB
  0
TABLE
  2
APPID
 70
               1
  0
APPID
  2
ACAD
 70
               0
  0
ENDTAB
  0
TABLE
  2
DIMSTYLE
 70
               1
  0
DIMSTYLE
  2
STANDARD
 70
               0
  3

  4

  5

  6

  7

 40
1.0
 41
0.18
 42
0.0625
 43
0.38
 44
0.18
 45
0.0
 46
0.0
 47
0.0
 48
0.0
 71
               0
 72
               0
 73
               1
 74
               1
 75
               0
 76
               0
 77
               0
 78
               0
140
0.18
141
0.09
142
0.0
143
25.399999999999999
144
1.0
145
0.0
146
1.0
147
0.09
170
               0
171
               2
172
               0
173
               0
174
               0
175
               0
176
               0
177
               0
178
               0
  0
ENDTAB
  0
ENDSEC
  0
SECTION
  2
BLOCKS
  0
BLOCK
  8
001
  5
24
  2
ETC-1
 70
               0
 10
0.0
 20
0.0
 30
0.0
  3
ETC-1
  0
POLYLINE
  8
001
  5
25
 66
               1
 10
0.0
 20
0.0
 30
0.0
  0
VERTEX
  8
001
  5
26
 10
733.93588035827293
 20
802.64630396906546
 30
0.0
  0
VERTEX
  8
001
  5
27
 10
728.93588035827293
 20
805.53310396906545
 30
0.0
  0
VERTEX
  8
001
  5
28
 10
723.93588035827293
 20
802.64630396906546
 30
0.0
  0
VERTEX
  8
001
  5
29
 10
723.93588035827293
 20
796.87270396906547
 30
0.0
  0
VERTEX
  8
001
  5
2A
 10
728.93588035827293
 20
793.98610396906543
 30
0.0
  0
VERTEX
  8
001
  5
2B
 10
733.93588035827293
 20
796.87270396906547
 30
0.0
  0
VERTEX
  8
001
  5
2C
 10
733.93588035827293
 20
802.64630396906546
 30
0.0
  0
SEQEND
  8
001
  5
2D
  0
ENDBLK
  8
001
  5
2E
  0
BLOCK
  8
001
  5
30
  2
ETC-2
 70
               0
 10
0.0
 20
0.0
 30
0.0
  3
ETC-2
  0
POLYLINE
  8
001
 62
               3
  5
31
 66
               1
 10
0.0
 20
0.0
 30
0.0
  0
VERTEX
  8
001
 62
               3
  5
32
 10
198.08984538709933
 20
859.75960396906544
 30
0.0
  0
VERTEX
  8
001
 62
               3
  5
33
 10
195.20314538709937
 20
854.75960396906544
 30
0.0
  0
VERTEX
  8
001
 62
               3
  5
34
 10
196.58984538709933
 20
854.75960396906544
 30
0.0
  0
VERTEX
  8
001
 62
               3
  5
35
 10
196.58984538709933
 20
845.49160396906541
 30
0.0
  0
VERTEX
  8
001
 62
               3
  5
36
 10
195.58984538709933
 20
843.75960396906544
 30
0.0
  0
VERTEX
  8
001
 62
               3
  5
37
 10
195.58984538709933
 20
833.75960396906544
 30
0.0
  0
VERTEX
  8
001
 62
               3
  5
38
 10
198.08984538709933
 20
838.08980396906543
 30
0.0
  0
VERTEX
  8
001
 62
               3
  5
39
 10
200.58984538709933
 20
833.75960396906544
 30
0.0
  0
VERTEX
  8
001
 62
               3
  5
3A
 10
200.58984538709933
 20
843.75970396906541
 30
0.0
  0
VERTEX
  8
001
 62
               3
  5
3B
 10
199.58984538709933
 20
845.49170396906538
 30
0.0
  0
VERTEX
  8
001
 62
               3
  5
3C
 10
199.58984538709933
 20
854.75960396906544
 30
0.0
  0
VERTEX
  8
001
 62
               3
  5
3D
 10
200.97654538709935
 20
854.75960396906544
 30
0.0
  0
VERTEX
  8
001
 62
               3
  5
3E
 10
198.08984538709933
 20
859.75960396906544
 30
0.0
  0
SEQEND
  8
001
  5
3F
  0
ENDBLK
  8
001
  5
40
  0
BLOCK
  8
001
  5
42
  2
ETC-3
 70
               0
 10
0.0
 20
0.0
 30
0.0
  3
ETC-3
  0
POLYLINE
  8
001
 62
               3
  5
43
 66
               1
 10
0.0
 20
0.0
 30
0.0
  0
VERTEX
  8
001
 62
               3
  5
44
 10
198.08984538709933
 20
1215.2343998231822
 30
0.0
  0
VERTEX
  8
001
 62
               3
  5
45
 10
195.20314538709937
 20
1210.2343998231822
 30
0.0
  0
VERTEX
  8
001
 62
               3
  5
46
 10
196.58984538709933
 20
1210.2343998231822
 30
0.0
  0
VERTEX
  8
001
 62
               3
  5
47
 10
196.58984538709933
 20
1200.9663998231822
 30
0.0
  0
VERTEX
  8
001
 62
               3
  5
48
 10
195.58984538709933
 20
1199.2343998231822
 30
0.0
  0
VERTEX
  8
001
 62
               3
  5
49
 10
195.58984538709933
 20
1189.2343998231822
 30
0.0
  0
VERTEX
  8
001
 62
               3
  5
4A
 10
198.08984538709933
 20
1193.5645998231821
 30
0.0
  0
VERTEX
  8
001
 62
               3
  5
4B
 10
200.58984538709933
 20
1189.2343998231822
 30
0.0
  0
VERTEX
  8
001
 62
               3
  5
4C
 10
200.58984538709933
 20
1199.2343998231822
 30
0.0
  0
VERTEX
  8
001
 62
               3
  5
4D
 10
199.58984538709933
 20
1200.9663998231822
 30
0.0
  0
VERTEX
  8
001
 62
               3
  5
4E
 10
199.58984538709933
 20
1210.2343998231822
 30
0.0
  0
VERTEX
  8
001
 62
               3
  5
4F
 10
200.97654538709935
 20
1210.2343998231822
 30
0.0
  0
VERTEX
  8
001
 62
               3
  5
50
 10
198.08984538709933
 20
1215.2343998231822
 30
0.0
  0
SEQEND
  8
001
  5
51
  0
ENDBLK
  8
001
  5
52
  0
BLOCK
  8
001
  5
54
  2
ETC-4
 70
               0
 10
0.0
 20
0.0
 30
0.0
  3
ETC-4
  0
POLYLINE
  8
001
 62
               3
  5
55
 66
               1
 10
0.0
 20
0.0
 30
0.0
  0
VERTEX
  8
001
 62
               3
  5
56
 10
746.93588035827293
 20
808.60490396906539
 30
0.0
  0
VERTEX
  8
001
 62
               3
  5
57
 10
746.93588035827293
 20
810.91430396906549
 30
0.0
  0
VERTEX
  8
001
 62
               3
  5
58
 10
748.93588035827293
 20
812.06900396906542
 30
0.0
  0
VERTEX
  8
001
 62
               3
  5
59
 10
750.93588035827293
 20
810.91430396906549
 30
0.0
  0
VERTEX
  8
001
 62
               3
  5
5A
 10
750.93588035827293
 20
808.60490396906539
 30
0.0
  0
VERTEX
  8
001
 62
               3
  5
5B
 10
748.93588035827293
 20
807.45020396906546
 30
0.0
  0
VERTEX
  8
001
 62
               3
  5
5C
 10
746.93588035827293
 20
808.60490396906539
 30
0.0
  0
SEQEND
  8
001
  5
5D
  0
ENDBLK
  8
001
  5
5E
  0
BLOCK
  8
001
  5
60
  2
ETC-5
 70
               0
 10
0.0
 20
0.0
 30
0.0
  3
ETC-5
  0
POLYLINE
  8
001
  5
61
 66
               1
 10
0.0
 20
0.0
 30
0.0
  0
VERTEX
  8
001
  5
62
 10
408.3397453870993
 20
857.89360396906545
 30
0.0
  0
VERTEX
  8
001
  5
63
 10
408.3397453870993
 20
859.62560396906542
 30
0.0
  0
VERTEX
  8
001
  5
64
 10
406.8397453870993
 20
860.49160396906541
 30
0.0
  0
VERTEX
  8
001
  5
65
 10
405.3397453870993
 20
859.62560396906542
 30
0.0
  0
VERTEX
  8
001
  5
66
 10
405.3397453870993
 20
857.89360396906545
 30
0.0
  0
VERTEX
  8
001
  5
67
 10
406.8397453870993
 20
857.02750396906549
 30
0.0
  0
VERTEX
  8
001
  5
68
 10
408.3397453870993
 20
857.89360396906545
 30
0.0
  0
SEQEND
  8
001
  5
69
  0
ENDBLK
  8
001
  5
6A
  0
BLOCK
  8
001
  5
6C
  2
ETC-6
 70
               0
 10
0.0
 20
0.0
 30
0.0
  3
ETC-6
  0
POLYLINE
  8
001
  5
6D
 66
               1
 10
0.0
 20
0.0
 30
0.0
  0
VERTEX
  8
001
  5
6E
 10
450.3397453870993
 20
857.89360396906545
 30
0.0
  0
VERTEX
  8
001
  5
6F
 10
450.3397453870993
 20
859.62560396906542
 30
0.0
  0
VERTEX
  8
001
  5
70
 10
448.8397453870993
 20
860.49160396906541
 30
0.0
  0
VERTEX
  8
001
  5
71
 10
447.3397453870993
 20
859.62560396906542
 30
0.0
  0
VERTEX
  8
001
  5
72
 10
447.3397453870993
 20
857.89360396906545
 30
0.0
  0
VERTEX
  8
001
  5
73
 10
448.8397453870993
 20
857.02750396906549
 30
0.0
  0
VERTEX
  8
001
  5
74
 10
450.3397453870993
 20
857.89360396906545
 30
0.0
  0
SEQEND
  8
001
  5
75
  0
ENDBLK
  8
001
  5
76
  0
BLOCK
  8
001
  5
78
  2
ETC-7
 70
               0
 10
0.0
 20
0.0
 30
0.0
  3
ETC-7
  0
POLYLINE
  8
001
  5
79
 66
               1
 10
0.0
 20
0.0
 30
0.0
  0
VERTEX
  8
001
  5
7A
 10
433.3397453870993
 20
814.12560396906542
 30
0.0
  0
VERTEX
  8
001
  5
7B
 10
433.3397453870993
 20
812.39360396906545
 30
0.0
  0
VERTEX
  8
001
  5
7C
 10
434.8397453870993
 20
811.52750396906549
 30
0.0
  0
VERTEX
  8
001
  5
7D
 10
436.3397453870993
 20
812.39360396906545
 30
0.0
  0
VERTEX
  8
001
  5
7E
 10
436.3397453870993
 20
814.12560396906542
 30
0.0
  0
VERTEX
  8
001
  5
7F
 10
434.8397453870993
 20
814.99160396906541
 30
0.0
  0
VERTEX
  8
001
  5
80
 10
433.3397453870993
 20
814.12560396906542
 30
0.0
  0
SEQEND
  8
001
  5
81
  0
ENDBLK
  8
001
  5
82
  0
BLOCK
  8
001
  5
84
  2
ETC-8
 70
               0
 10
0.0
 20
0.0
 30
0.0
  3
ETC-8
  0
POLYLINE
  8
001
  5
85
 66
               1
 10
0.0
 20
0.0
 30
0.0
  0
VERTEX
  8
001
  5
86
 10
393.3397453870993
 20
814.12560396906542
 30
0.0
  0
VERTEX
  8
001
  5
87
 10
393.3397453870993
 20
812.39360396906545
 30
0.0
  0
VERTEX
  8
001
  5
88
 10
394.8397453870993
 20
811.52750396906549
 30
0.0
  0
VERTEX
  8
001
  5
89
 10
396.3397453870993
 20
812.39360396906545
 30
0.0
  0
VERTEX
  8
001
  5
8A
 10
396.3397453870993
 20
814.12560396906542
 30
0.0
  0
VERTEX
  8
001
  5
8B
 10
394.8397453870993
 20
814.99160396906541
 30
0.0
  0
VERTEX
  8
001
  5
8C
 10
393.3397453870993
 20
814.12560396906542
 30
0.0
  0
SEQEND
  8
001
  5
8D
  0
ENDBLK
  8
001
  5
8E
  0
BLOCK
  8
001
  5
90
  2
ETC-9
 70
               0
 10
0.0
 20
0.0
 30
0.0
  3
ETC-9
  0
POLYLINE
  8
001
 62
               3
  5
91
 66
               1
 10
0.0
 20
0.0
 30
0.0
  0
VERTEX
  8
001
 62
               3
  5
92
 10
794.93578035827295
 20
808.60490396906539
 30
0.0
  0
VERTEX
  8
001
 62
               3
  5
93
 10
794.93578035827295
 20
810.91430396906549
 30
0.0
  0
VERTEX
  8
001
 62
               3
  5
94
 10
792.93578035827295
 20
812.06900396906542
 30
0.0
  0
VERTEX
  8
001
 62
               3
  5
95
 10
790.93578035827295
 20
810.91430396906549
 30
0.0
  0
VERTEX
  8
001
 62
               3
  5
96
 10
790.93578035827295
 20
808.60490396906539
 30
0.0
  0
VERTEX
  8
001
 62
               3
  5
97
 10
792.93578035827295
 20
807.45020396906546
 30
0.0
  0
VERTEX
  8
001
 62
               3
  5
98
 10
794.93578035827295
 20
808.60490396906539
 30
0.0
  0
SEQEND
  8
001
  5
99
  0
ENDBLK
  8
001
  5
9A
  0
BLOCK
  8
001
  5
9C
  2
ETC-10
 70
               0
 10
0.0
 20
0.0
 30
0.0
  3
ETC-10
  0
POLYLINE
  8
001
 62
               3
  5
9D
 66
               1
 10
0.0
 20
0.0
 30
0.0
  0
VERTEX
  8
001
 62
               3
  5
9E
 10
799.93638035827303
 20
1032.6049039690654
 30
0.0
  0
VERTEX
  8
001
 62
               3
  5
9F
 10
799.93638035827303
 20
1034.9143039690655
 30
0.0
  0
VERTEX
  8
001
 62
               3
  5
A0
 10
797.93608035827299
 20
1036.0689039690656
 30
0.0
  0
VERTEX
  8
001
 62
               3
  5
A1
 10
795.93608035827299
 20
1034.9143039690655
 30
0.0
  0
VERTEX
  8
001
 62
               3
  5
A2
 10
795.93608035827299
 20
1032.6049039690654
 30
0.0
  0
VERTEX
  8
001
 62
               3
  5
A3
 10
797.93608035827299
 20
1031.4502039690656
 30
0.0
  0
VERTEX
  8
001
 62
               3
  5
A4
 10
799.93638035827303
 20
1032.6049039690654
 30
0.0
  0
SEQEND
  8
001
  5
A5
  0
ENDBLK
  8
001
  5
A6
  0
BLOCK
  8
001
  5
A8
  2
ETC-11
 70
               0
 10
0.0
 20
0.0
 30
0.0
  3
ETC-11
  0
POLYLINE
  8
001
 62
               3
  5
A9
 66
               1
 10
0.0
 20
0.0
 30
0.0
  0
VERTEX
  8
001
 62
               3
  5
AA
 10
741.93608035827287
 20
1032.6050039690654
 30
0.0
  0
VERTEX
  8
001
 62
               3
  5
AB
 10
741.93608035827287
 20
1034.9143039690653
 30
0.0
  0
VERTEX
  8
001
 62
               3
  5
AC
 10
743.93608035827287
 20
1036.0690039690653
 30
0.0
  0
VERTEX
  8
001
 62
               3
  5
AD
 10
745.93608035827287
 20
1034.9143039690653
 30
0.0
  0
VERTEX
  8
001
 62
               3
  5
AE
 10
745.93608035827287
 20
1032.6050039690654
 30
0.0
  0
VERTEX
  8
001
 62
               3
  5
AF
 10
743.93608035827287
 20
1031.4502039690653
 30
0.0
  0
VERTEX
  8
001
 62
               3
  5
B0
 10
741.93608035827287
 20
1032.6050039690654
 30
0.0
  0
SEQEND
  8
001
  5
B1
  0
ENDBLK
  8
001
  5
B2
  0
BLOCK
  8
001
  5
B4
  2
ETC-12
 70
               0
 10
0.0
 20
0.0
 30
0.0
  3
ETC-12
  0
POLYLINE
  8
001
 62
               2
  5
B5
 66
               1
 10
0.0
 20
0.0
 30
0.0
  0
VERTEX
  8
001
 62
               2
  5
B6
 10
408.3397453870993
 20
677.89360396906545
 30
0.0
  0
VERTEX
  8
001
 62
               2
  5
B7
 10
408.3397453870993
 20
679.62560396906542
 30
0.0
  0
VERTEX
  8
001
 62
               2
  5
B8
 10
406.8397453870993
 20
680.49160396906541
 30
0.0
  0
VERTEX
  8
001
 62
               2
  5
B9
 10
405.3397453870993
 20
679.62560396906542
 30
0.0
  0
VERTEX
  8
001
 62
               2
  5
BA
 10
405.3397453870993
 20
677.89360396906545
 30
0.0
  0
VERTEX
  8
001
 62
               2
  5
BB
 10
406.8397453870993
 20
677.02750396906549
 30
0.0
  0
VERTEX
  8
001
 62
               2
  5
BC
 10
408.3397453870993
 20
677.89360396906545
 30
0.0
  0
SEQEND
  8
001
  5
BD
  0
ENDBLK
  8
001
  5
BE
  0
BLOCK
  8
001
  5
C0
  2
ETC-13
 70
               0
 10
0.0
 20
0.0
 30
0.0
  3
ETC-13
  0
POLYLINE
  8
001
 62
               2
  5
C1
 66
               1
 10
0.0
 20
0.0
 30
0.0
  0
VERTEX
  8
001
 62
               2
  5
C2
 10
393.3397453870993
 20
634.12560396906542
 30
0.0
  0
VERTEX
  8
001
 62
               2
  5
C3
 10
393.3397453870993
 20
632.39360396906545
 30
0.0
  0
VERTEX
  8
001
 62
               2
  5
C4
 10
394.8397453870993
 20
631.52750396906549
 30
0.0
  0
VERTEX
  8
001
 62
               2
  5
C5
 10
396.3397453870993
 20
632.39360396906545
 30
0.0
  0
VERTEX
  8
001
 62
               2
  5
C6
 10
396.3397453870993
 20
634.12560396906542
 30
0.0
  0
VERTEX
  8
001
 62
               2
  5
C7
 10
394.8397453870993
 20
634.99160396906541
 30
0.0
  0
VERTEX
  8
001
 62
               2
  5
C8
 10
393.3397453870993
 20
634.12560396906542
 30
0.0
  0
SEQEND
  8
001
  5
C9
  0
ENDBLK
  8
001
  5
CA
  0
BLOCK
  8
001
  5
CC
  2
ETC-14
 70
               0
 10
0.0
 20
0.0
 30
0.0
  3
ETC-14
  0
POLYLINE
  8
001
 62
               2
  5
CD
 66
               1
 10
0.0
 20
0.0
 30
0.0
  0
VERTEX
  8
001
 62
               2
  5
CE
 10
396.3397453870993
 20
632.39360396906545
 30
0.0
  0
VERTEX
  8
001
 62
               2
  5
CF
 10
396.3397453870993
 20
634.12560396906542
 30
0.0
  0
VERTEX
  8
001
 62
               2
  5
D0
 10
394.8397453870993
 20
634.99160396906541
 30
0.0
  0
VERTEX
  8
001
 62
               2
  5
D1
 10
393.3397453870993
 20
634.12560396906542
 30
0.0
  0
VERTEX
  8
001
 62
               2
  5
D2
 10
393.3397453870993
 20
632.39360396906545
 30
0.0
  0
VERTEX
  8
001
 62
               2
  5
D3
 10
394.8397453870993
 20
631.52750396906549
 30
0.0
  0
VERTEX
  8
001
 62
               2
  5
D4
 10
396.3397453870993
 20
632.39360396906545
 30
0.0
  0
SEQEND
  8
001
  5
D5
  0
ENDBLK
  8
001
  5
D6
  0
ENDSEC
  0
SECTION
  2
ENTITIES
  0
INSERT
  8
001
  6
BYBLOCK
 62
               0
  5
D7
  2
ETC-1
 10
0.0
 20
0.0
 30
0.0
  0
INSERT
  8
001
  6
BYBLOCK
 62
               0
  5
D8
  2
ETC-2
 10
0.0
 20
0.0
 30
0.0
  0
INSERT
  8
001
  6
BYBLOCK
 62
               0
  5
D9
  2
ETC-3
 10
0.0
 20
0.0
 30
0.0
  0
INSERT
  8
001
  6
BYBLOCK
 62
               0
  5
DA
  2
ETC-4
 10
0.0
 20
0.0
 30
0.0
  0
INSERT
  8
001
  6
BYBLOCK
 62
               0
  5
DB
  2
ETC-5
 10
0.0
 20
0.0
 30
0.0
  0
INSERT
  8
001
  6
BYBLOCK
 62
               0
  5
DC
  2
ETC-6
 10
0.0
 20
0.0
 30
0.0
  0
INSERT
  8
001
  6
BYBLOCK
 62
               0
  5
DD
  2
ETC-7
 10
0.0
 20
0.0
 30
0.0
  0
INSERT
  8
001
  6
BYBLOCK
 62
               0
  5
DE
  2
ETC-8
 10
0.0
 20
0.0
 30
0.0
  0
INSERT
  8
001
  6
BYBLOCK
 62
               0
  5
DF
  2
ETC-9
 10
0.0
 20
0.0
 30
0.0
  0
INSERT
  8
001
  6
BYBLOCK
 62
               0
  5
E0
  2
ETC-10
 10
0.0
 20
0.0
 30
0.0
  0
INSERT
  8
001
  6
BYBLOCK
 62
               0
  5
E1
  2
ETC-11
 10
0.0
 20
0.0
 30
0.0
  0
INSERT
  8
001
  6
BYBLOCK
 62
               0
  5
E2
  2
ETC-12
 10
0.0
 20
0.0
 30
0.0
  0
INSERT
  8
001
  6
BYBLOCK
 62
               0
  5
E3
  2
ETC-13
 10
0.0
 20
0.0
 30
0.0
  0
INSERT
  8
001
  6
BYBLOCK
 62
               0
  5
E4
  2
ETC-14
 10
0.0
 20
0.0
 30
0.0
  0
LINE
  8
001
 62
               3
  5
E5
 10
486.8397453870993
 20
779.25960396906544
 30
0.0
 11
486.8397453870993
 21
764.75960396906544
 31
0.0
  0
LINE
  8
001
 62
               3
  5
E6
 10
759.93588035827293
 20
770.75950396906546
 30
0.0
 11
759.93588035827293
 21
779.25950396906546
 31
0.0
  0
LINE
  8
001
 62
               3
  5
E7
 10
771.87158035827292
 20
779.25950396906546
 30
0.0
 11
759.93588035827293
 21
779.25950396906546
 31
0.0
  0
LINE
  8
001
 62
               3
  5
E8
 10
771.87158035827292
 20
782.25960396906544
 30
0.0
 11
759.93588035827293
 21
782.25960396906544
 31
0.0
  0
LINE
  8
001
 62
               3
  5
E9
 10
384.25264538709934
 20
785.75960396906544
 30
0.0
 11
384.25264538709934
 21
773.75960396906544
 31
0.0
  0
LINE
  8
001
 62
               3
  5
EA
 10
728.93588035827293
 20
805.75960396906544
 30
0.0
 11
731.62928035827292
 21
805.75960396906544
 31
0.0
  0
LINE
  8
001
 62
               3
  5
EB
 10
728.93588035827293
 20
793.75960396906544
 30
0.0
 11
754.93588035827293
 21
793.75960396906544
 31
0.0
  0
LINE
  8
001
 62
               3
  5
EC
 10
793.93588035827293
 20
799.52120396906548
 30
0.0
 11
793.93588035827293
 21
802.75960396906544
 31
0.0
  0
LINE
  8
001
 62
               3
  5
ED
 10
760.93588035827293
 20
769.75950396906546
 30
0.0
 11
774.31688035827301
 21
769.75950396906546
 31
0.0
  0
LINE
  8
001
 62
               3
  5
EE
 10
759.93588035827293
 20
788.75960396906544
 30
0.0
 11
759.93588035827293
 21
782.25960396906544
 31
0.0
  0
LINE
  8
001
 62
               3
  5
EF
 10
634.3024453870994
 20
766.65960396906542
 30
0.0
 11
634.3024453870994
 21
794.85960396906546
 31
0.0
  0
LINE
  8
001
 62
               3
  5
F0
 10
580.80254538709937
 20
768.75960396906544
 30
0.0
 11
580.80254538709937
 21
792.75960396906544
 31
0.0
  0
LINE
  8
001
 62
               3
  5
F1
 10
506.8397453870993
 20
768.75960396906544
 30
0.0
 11
616.8024453870994
 21
768.75960396906544
 31
0.0
  0
LINE
  8
001
 62
               3
  5
F2
 10
466.8397453870993
 20
792.75960396906544
 30
0.0
 11
466.8397453870993
 21
768.75960396906544
 31
0.0
  0
LINE
  8
001
 62
               3
  5
F3
 10
436.8397453870993
 20
776.75950396906546
 30
0.0
 11
436.8397453870993
 21
784.75960396906544
 31
0.0
  0
LINE
  8
001
 62
               3
  5
F4
 10
486.8397453870993
 20
768.75960396906544
 30
0.0
 11
466.8397453870993
 21
768.75960396906544
 31
0.0
  0
LINE
  8
001
 62
               3
  5
F5
 10
486.8397453870993
 20
792.75960396906544
 30
0.0
 11
466.8397453870993
 21
792.75960396906544
 31
0.0
  0
LINE
  8
001
  6
CENTER
  5
F6
 10
659.81428269178673
 20
780.75960396906544
 30
0.0
 11
431.33964538709927
 21
780.75960396906544
 31
0.0
  0
LINE
  8
001
 62
               3
  5
F7
 10
466.8397453870993
 20
785.25960396906544
 30
0.0
 11
437.3397453870993
 21
785.25940396906549
 31
0.0
  0
LINE
  8
001
 62
               3
  5
F8
 10
466.8397453870993
 20
776.25960396906544
 30
0.0
 11
437.3397453870993
 21
776.25940396906549
 31
0.0
  0
LINE
  8
001
 62
               3
  5
F9
 10
437.3397453870993
 20
776.25940396906549
 30
0.0
 11
437.3397453870993
 21
785.25940396906549
 31
0.0
  0
LINE
  8
001
 62
               3
  5
FA
 10
437.3397453870993
 20
785.25940396906549
 30
0.0
 11
436.8397453870993
 21
784.75960396906555
 31
0.0
  0
LINE
  8
001
 62
               3
  5
FB
 10
437.3397453870993
 20
776.25940396906549
 30
0.0
 11
436.8397453870993
 21
776.75950396906546
 31
0.0
  0
LINE
  8
001
 62
               3
  5
FC
 10
382.13034538709934
 20
773.75970396906541
 30
0.0
 11
384.25264538709934
 21
773.75960396906544
 31
0.0
  0
LINE
  8
001
 62
               3
  5
FD
 10
616.8024453870994
 20
767.75960396906544
 30
0.0
 11
616.8024453870994
 21
793.75960396906544
 31
0.0
  0
LINE
  8
001
 62
               3
  5
FE
 10
635.8024453870994
 20
793.35960396906546
 30
0.0
 11
635.8024453870994
 21
768.15960396906542
 31
0.0
  0
LINE
  8
001
 62
               3
  5
FF
 10
634.3024453870994
 20
766.65960396906542
 30
0.0
 11
626.3024453870994
 21
766.65960396906542
 31
0.0
  0
LINE
  8
001
 62
               3
  5
100
 10
634.3024453870994
 20
794.85960396906546
 30
0.0
 11
626.3024453870994
 21
794.85960396906546
 31
0.0
  0
LINE
  8
001
 62
               3
  5
101
 10
626.3024453870994
 20
794.85960396906546
 30
0.0
 11
626.3024453870994
 21
766.65960396906542
 31
0.0
  0
LINE
  8
001
 62
               3
  5
102
 10
624.98244538709923
 20
767.25960396906544
 30
0.0
 11
624.98244538709923
 21
794.25960396906544
 31
0.0
  0
LINE
  8
001
 62
               3
  5
103
 10
616.8024453870994
 20
793.75960396906544
 30
0.0
 11
626.3024453870994
 21
794.34028856564248
 31
0.0
  0
LINE
  8
001
 62
               3
  5
104
 10
616.8024453870994
 20
767.75960396906544
 30
0.0
 11
626.3024453870994
 21
767.17891937248839
 31
0.0
  0
LINE
  8
001
  5
105
 10
514.83974538709936
 20
796.75960396906544
 30
0.0
 11
534.83974538709936
 21
796.75960396906544
 31
0.0
  0
LINE
  8
001
  5
106
 10
514.83974538709936
 20
797.25960396906544
 30
0.0
 11
534.83974538709936
 21
797.25960396906544
 31
0.0
  0
LINE
  8
001
  5
107
 10
514.83974538709936
 20
802.25960396906544
 30
0.0
 11
534.83974538709936
 21
802.25960396906544
 31
0.0
  0
LINE
  8
001
  5
108
 10
514.83974538709936
 20
802.75960396906544
 30
0.0
 11
534.83974538709936
 21
802.75960396906544
 31
0.0
  0
LINE
  8
001
  5
109
 10
514.83974538709936
 20
794.91900396906544
 30
0.0
 11
514.83974538709936
 21
804.60020396906543
 31
0.0
  0
LINE
  8
001
  5
10A
 10
509.8397453870993
 20
794.00960396906544
 30
0.0
 11
514.31484538709924
 21
794.00960396906544
 31
0.0
  0
LINE
  8
001
 62
               3
  5
10B
 10
509.8397453870993
 20
805.50970396906541
 30
0.0
 11
509.8397453870993
 21
794.00960396906544
 31
0.0
  0
LINE
  8
001
  5
10C
 10
514.31484538709924
 20
794.00960396906544
 30
0.0
 11
514.83974538709924
 21
794.91900396906544
 31
0.0
  0
LINE
  8
001
  5
10D
 10
514.31484538709924
 20
796.87870396906544
 30
0.0
 11
509.83974538709924
 21
796.87870396906544
 31
0.0
  0
LINE
  8
001
  5
10E
 10
514.31484538709924
 20
805.50960396906544
 30
0.0
 11
514.83974538709924
 21
804.60020396906543
 31
0.0
  0
LINE
  8
001
  5
10F
 10
514.31484538709924
 20
802.64040396906546
 30
0.0
 11
509.83974538709924
 21
802.64040396906546
 31
0.0
  0
LINE
  8
001
 62
               3
  5
110
 10
503.8397453870993
 20
879.75960396906544
 30
0.0
 11
503.8397453870993
 21
898.75960396906544
 31
0.0
  0
LINE
  8
001
 62
               3
  5
111
 10
510.8397453870993
 20
883.75960396906544
 30
0.0
 11
510.8397453870993
 21
898.75960396906544
 31
0.0
  0
LINE
  8
001
 62
               3
  5
112
 10
510.8397453870993
 20
898.75960396906544
 30
0.0
 11
503.8397453870993
 21
898.75960396906544
 31
0.0
  0
LINE
  8
001
  5
113
 10
484.8397453870993
 20
796.75960396906544
 30
0.0
 11
484.8397453870993
 21
802.75960396906544
 31
0.0
  0
LINE
  8
001
  5
114
 10
534.83974538709936
 20
796.75960396906544
 30
0.0
 11
534.83974538709936
 21
802.75960396906544
 31
0.0
  0
LINE
  8
001
  6
CENTER
  5
115
 10
472.8397453870993
 20
799.75960396906544
 30
0.0
 11
536.83974538709936
 21
799.75960396906544
 31
0.0
  0
LINE
  8
001
  5
116
 10
482.8397453870993
 20
796.75960396906544
 30
0.0
 11
502.8397453870993
 21
796.75960396906544
 31
0.0
  0
LINE
  8
001
  5
117
 10
482.8397453870993
 20
802.75960396906544
 30
0.0
 11
502.8397453870993
 21
802.75960396906544
 31
0.0
  0
LINE
  8
001
  5
118
 10
484.8397453870993
 20
797.25960396906544
 30
0.0
 11
502.8397453870993
 21
797.25960396906544
 31
0.0
  0
LINE
  8
001
  5
119
 10
474.8397453870993
 20
804.60020396906543
 30
0.0
 11
474.8397453870993
 21
794.91900396906544
 31
0.0
  0
LINE
  8
001
  5
11A
 10
482.8397453870993
 20
805.50960396906544
 30
0.0
 11
475.36494538709934
 21
805.50960396906544
 31
0.0
  0
LINE
  8
001
  5
11B
 10
482.8397453870993
 20
794.00940396906549
 30
0.0
 11
482.8397453870993
 21
805.50960396906544
 31
0.0
  0
LINE
  8
001
  5
11C
 10
475.36494538709934
 20
805.50960396906544
 30
0.0
 11
474.8397453870993
 21
804.60020396906543
 31
0.0
  0
LINE
  8
001
  5
11D
 10
475.36494538709934
 20
802.64040396906546
 30
0.0
 11
482.8397453870993
 21
802.64040396906546
 31
0.0
  0
LINE
  8
001
  5
11E
 10
475.36494538709934
 20
794.00960396906544
 30
0.0
 11
474.8397453870993
 21
794.91900396906544
 31
0.0
  0
LINE
  8
001
  5
11F
 10
475.36494538709934
 20
796.87870396906544
 30
0.0
 11
482.8397453870993
 21
796.87870396906544
 31
0.0
  0
LINE
  8
001
  5
120
 10
484.8397453870993
 20
802.25960396906544
 30
0.0
 11
502.8397453870993
 21
802.25960396906544
 31
0.0
  0
LINE
  8
001
  5
121
 10
482.8397453870993
 20
794.00940396906549
 30
0.0
 11
475.36494538709934
 21
794.00960396906544
 31
0.0
  0
LINE
  8
001
 62
               3
  5
122
 10
506.8397453870993
 20
793.75960396906544
 30
0.0
 11
506.8397453870993
 21
782.25960396906544
 31
0.0
  0
LINE
  8
001
  6
CENTER
  5
123
 10
500.43284538709935
 20
892.75960396906544
 30
0.0
 11
514.98724538709939
 21
892.75960396906544
 31
0.0
  0
LINE
  8
001
 62
               3
  5
124
 10
509.8397453870993
 20
793.75960396906544
 30
0.0
 11
502.8397453870993
 21
793.75960396906544
 31
0.0
  0
LINE
  8
001
 62
               3
  5
125
 10
502.8397453870993
 20
805.75960396906544
 30
0.0
 11
509.8397453870993
 21
805.75960396906544
 31
0.0
  0
LINE
  8
001
 62
               3
  5
126
 10
502.8397453870993
 20
793.75960396906544
 30
0.0
 11
502.8397453870993
 21
805.75960396906544
 31
0.0
  0
LINE
  8
001
 62
               3
  5
127
 10
509.8397453870993
 20
793.75960396906544
 30
0.0
 11
509.8397453870993
 21
805.75960396906544
 31
0.0
  0
LINE
  8
001
 62
               3
  5
128
 10
506.8397453870993
 20
792.75960396906544
 30
0.0
 11
616.8024453870994
 21
792.75960396906544
 31
0.0
  0
LINE
  8
001
 62
               3
  5
129
 10
506.8397453870993
 20
764.75960396906544
 30
0.0
 11
486.8397453870993
 21
764.75960396906544
 31
0.0
  0
LINE
  8
001
  6
CENTER
  5
12A
 10
802.18838035827298
 20
780.75960396906544
 30
0.0
 11
756.93578035827295
 21
780.75950396906546
 31
0.0
  0
LINE
  8
001
 62
               3
  5
12B
 10
747.95728035827301
 20
789.53610396906549
 30
0.0
 11
755.34008035827298
 21
761.9831039690655
 31
0.0
  0
LINE
  8
001
 62
               3
  5
12C
 10
807.29938035827286
 20
803.91750396906548
 30
0.0
 11
803.67538035827283
 21
762.49810396906548
 31
0.0
  0
LINE
  8
001
  6
CENTER
  5
12D
 10
785.93578035827295
 20
796.66250396906548
 30
0.0
 11
785.93588035827293
 21
764.27090396906556
 31
0.0
  0
LINE
  8
001
 62
               3
  5
12E
 10
741.06088035827293
 20
791.75960396906544
 30
0.0
 11
745.05958035827302
 21
791.75960396906544
 31
0.0
  0
LINE
  8
001
 62
               3
  5
12F
 10
758.23778035827286
 20
759.75960396906544
 30
0.0
 11
800.68738035827289
 21
759.75960396906544
 31
0.0
  0
LINE
  8
001
  6
CENTER
  5
130
 10
368.83984538709933
 20
846.75960396906544
 30
0.0
 11
635.83974538709936
 21
846.75960396906544
 31
0.0
  0
LINE
  8
001
  5
131
 10
509.8397453870993
 20
805.50970396906541
 30
0.0
 11
514.31484538709924
 21
805.50960396906544
 31
0.0
  0
LINE
  8
001
 62
               3
  5
132
 10
370.43344538709937
 20
791.75970396906541
 30
0.0
 11
399.12844538709936
 21
791.75960396906544
 31
0.0
  0
LINE
  8
001
 62
               3
  5
133
 10
417.13944538709933
 20
809.75960396906544
 30
0.0
 11
522.83974538709936
 21
809.75960396906544
 31
0.0
  0
LINE
  8
001
 62
               3
  5
134
 10
401.88334538709938
 20
787.68980396906545
 30
0.0
 11
402.03424538709936
 21
792.00960396906544
 31
0.0
  0
LINE
  8
001
 62
               3
  5
135
 10
486.8397453870993
 20
809.75960396906544
 30
0.0
 11
486.8397453870993
 21
802.75960396906544
 31
0.0
  0
LINE
  8
001
 62
               3
  5
136
 10
381.93744538709933
 20
762.7072039690654
 30
0.0
 11
382.30554538709936
 21
783.79450396906543
 31
0.0
  0
LINE
  8
001
 62
               3
  5
137
 10
384.30524538709932
 20
785.75960396906544
 30
0.0
 11
399.88454538709931
 21
785.75960396906544
 31
0.0
  0
LINE
  8
001
 62
               3
  5
138
 10
374.44804538709934
 20
759.75960396906544
 30
0.0
 11
378.93794538709932
 21
759.75960396906544
 31
0.0
  0
LINE
  8
001
 62
               3
  5
139
 10
371.44984538709934
 20
762.65490396906546
 30
0.0
 11
369.87354538709934
 21
807.79450396906543
 31
0.0
  0
LINE
  8
001
 62
               3
  5
13A
 10
506.8397453870993
 20
809.75960396906544
 30
0.0
 11
506.8397453870993
 21
805.75960396906544
 31
0.0
  0
LINE
  8
001
 62
               3
  5
13B
 10
373.83984538709933
 20
879.75960396906544
 30
0.0
 11
392.3397453870993
 21
879.75960396906544
 31
0.0
  0
LINE
  8
001
 62
               3
  5
13C
 10
368.87414538709936
 20
808.75960396906544
 30
0.0
 11
368.83984538709933
 21
808.75960396906544
 31
0.0
  0
LINE
  8
001
 62
               3
  5
13D
 10
510.8397453870993
 20
883.75960396906544
 30
0.0
 11
522.83974538709936
 21
883.75960396906544
 31
0.0
  0
LINE
  8
001
 62
               3
  5
13E
 10
369.83984538709933
 20
883.75960396906544
 30
0.0
 11
368.83984538709933
 21
883.75960396906544
 31
0.0
  0
LINE
  8
001
 62
               3
  5
13F
 10
522.83974538709936
 20
883.75960396906544
 30
0.0
 11
522.83974538709936
 21
802.75960396906544
 31
0.0
  0
LINE
  8
001
 62
               3
  5
140
 10
368.83984538709933
 20
883.75960396906544
 30
0.0
 11
368.83984538709933
 21
808.75960396906544
 31
0.0
  0
LINE
  8
001
 62
               3
  5
141
 10
506.8397453870993
 20
779.25960396906544
 30
0.0
 11
506.8397453870993
 21
764.75960396906544
 31
0.0
  0
LINE
  8
001
 62
               3
  5
142
 10
772.43578035827295
 20
766.2503039690655
 30
0.0
 11
772.43578035827295
 21
769.75950396906546
 31
0.0
  0
LINE
  8
001
 62
               3
  5
143
 10
764.93578035827295
 20
765.75950396906546
 30
0.0
 11
769.93578035827295
 21
765.75950396906546
 31
0.0
  0
LINE
  8
001
 62
               3
  5
144
 10
762.43578035827295
 20
769.75950396906546
 30
0.0
 11
762.43578035827295
 21
766.2503039690655
 31
0.0
  0
LINE
  8
001
 62
               3
  5
145
 10
767.43578035827295
 20
766.2503039690655
 30
0.0
 11
767.43578035827295
 21
769.75950396906546
 31
0.0
  0
LINE
  8
001
 62
               3
  5
146
 10
770.43588035827293
 20
779.25950396906546
 30
0.0
 11
770.43588035827293
 21
782.25960396906544
 31
0.0
  0
LINE
  8
001
 62
               3
  5
147
 10
764.43588035827293
 20
779.25950396906546
 30
0.0
 11
764.43588035827293
 21
782.25960396906544
 31
0.0
  0
LINE
  8
001
 62
               3
  5
148
 10
769.93588035827293
 20
779.25950396906546
 30
0.0
 11
769.93588035827293
 21
782.25960396906544
 31
0.0
  0
LINE
  8
001
 62
               3
  5
149
 10
764.93588035827293
 20
779.25950396906546
 30
0.0
 11
764.93588035827293
 21
782.25960396906544
 31
0.0
  0
LINE
  8
001
 62
               3
  5
14A
 10
625.83974538709936
 20
1230.7343998231822
 30
0.0
 11
626.30234538709942
 21
1230.7343998231822
 31
0.0
  0
LINE
  8
001
 62
               4
  5
14B
 10
720.93588035827293
 20
903.5881039690654
 30
0.0
 11
722.35008035827298
 21
902.17390396906546
 31
0.0
  0
LINE
  8
001
 62
               4
  5
14C
 10
724.84698035827296
 20
907.49910396906546
 30
0.0
 11
720.93588035827293
 21
903.5881039690654
 31
0.0
  0
LINE
  8
001
 62
               4
  5
14D
 10
725.60168035827292
 20
905.42540396906543
 30
0.0
 11
722.35008035827298
 21
902.17390396906546
 31
0.0
  0
LINE
  8
001
 62
               3
  5
14E
 10
625.83974538709936
 20
1203.7343998231822
 30
0.0
 11
626.30234538709942
 21
1203.7343998231822
 31
0.0
  0
LINE
  8
001
 62
               4
  5
14F
 10
820.93638035827303
 20
901.52210396906548
 30
0.0
 11
815.90638035827294
 21
904.42590396906553
 31
0.0
  0
LINE
  8
001
 62
               4
  5
150
 10
819.93638035827303
 20
899.79000396906542
 30
0.0
 11
815.211380358273
 21
902.5175039690655
 31
0.0
  0
LINE
  8
001
 62
               4
  5
151
 10
821.764380358273
 20
852.75950396906546
 30
0.0
 11
814.93638035827303
 21
845.93110396906536
 31
0.0
  0
LINE
  8
001
 62
               4
  5
152
 10
820.35038035827301
 20
854.17380396906549
 30
0.0
 11
814.93638035827303
 21
848.75960396906544
 31
0.0
  0
LINE
  8
001
 62
               4
  5
153
 10
822.93638035827303
 20
855.58790396906545
 30
0.0
 11
822.93638035827303
 21
898.05800396906545
 31
0.0
  0
LINE
  8
001
  5
154
 10
454.8397453870993
 20
810.75960396906544
 30
0.0
 11
454.8397453870993
 21
857.75960396906544
 31
0.0
  0
LINE
  8
001
 62
               4
  5
155
 10
820.93638035827303
 20
855.58800396906543
 30
0.0
 11
820.93638035827303
 21
898.05800396906545
 31
0.0
  0
LINE
  8
001
 62
               3
  5
156
 10
626.3024453870994
 20
1231.3342998231824
 30
0.0
 11
626.3024453870994
 21
1203.1342998231823
 31
0.0
  0
LINE
  8
001
 62
               4
  5
157
 10
718.93588035827293
 20
809.22370396906547
 30
0.0
 11
718.93588035827293
 21
811.87288262311733
 31
0.0
  0
LINE
  8
001
 62
               3
  5
158
 10
634.3024453870994
 20
1231.3342998231824
 30
0.0
 11
626.3024453870994
 21
1231.3342998231824
 31
0.0
  0
LINE
  8
001
 62
               4
  5
159
 10
716.93588035827293
 20
793.08190396906548
 30
0.0
 11
716.93588035827293
 21
813.02758316149664
 31
0.0
  0
LINE
  8
001
 62
               3
  5
15A
 10
634.3024453870994
 20
1203.1342998231821
 30
0.0
 11
626.3024453870994
 21
1203.1342998231821
 31
0.0
  0
LINE
  8
001
 62
               4
  5
15B
 10
719.05658035827287
 20
792.3979039690654
 30
0.0
 11
730.45688035827288
 21
761.07550396906549
 31
0.0
  0
LINE
  8
001
 62
               4
  5
15C
 10
809.93638035827303
 20
761.75960396906544
 30
0.0
 11
809.93638035827303
 21
805.51260396906537
 31
0.0
  0
LINE
  8
001
 62
               4
  5
15D
 10
718.93588035827293
 20
793.08190396906548
 30
0.0
 11
718.93588035827293
 21
805.75960396906544
 31
0.0
  0
LINE
  8
001
 62
               4
  5
15E
 10
732.33628035827292
 20
759.75960396906544
 30
0.0
 11
805.93638035827303
 21
759.75960396906544
 31
0.0
  0
LINE
  8
001
 62
               4
  5
15F
 10
807.93638035827303
 20
761.75960396906544
 30
0.0
 11
807.93638035827303
 21
804.22700396906544
 31
0.0
  0
LINE
  8
001
 62
               4
  5
160
 10
728.57758035827283
 20
760.39150396906541
 30
0.0
 11
717.17718035827284
 21
791.71380396906545
 31
0.0
  0
LINE
  8
001
 62
               4
  5
161
 10
732.33618035827294
 20
757.75960396906544
 30
0.0
 11
805.93638035827303
 21
757.75960396906544
 31
0.0
  0
LINE
  8
001
 62
               3
  5
162
 10
635.8024453870994
 20
1229.8342998231824
 30
0.0
 11
635.8024453870994
 21
1204.6342998231823
 31
0.0
  0
LINE
  8
001
 62
               3
  5
163
 10
634.3024453870994
 20
1203.1342998231821
 30
0.0
 11
634.3024453870994
 21
1231.3342998231822
 31
0.0
  0
LINE
  8
001
  6
CENTER
  5
164
 10
660.06715332117255
 20
1217.2344963242663
 30
0.0
 11
620.83944538709932
 21
1217.234299823182
 31
0.0
  0
LINE
  8
001
 62
               4
  5
165
 10
379.83984538709933
 20
900.75960396906544
 30
0.0
 11
514.83974538709936
 21
900.75960396906544
 31
0.0
  0
LINE
  8
001
 62
               3
  5
166
 10
493.8397453870993
 20
779.25960396906544
 30
0.0
 11
493.8397453870993
 21
782.25960396906544
 31
0.0
  0
LINE
  8
001
 62
               3
  5
167
 10
499.8397453870993
 20
779.25960396906544
 30
0.0
 11
499.8397453870993
 21
782.25960396906544
 31
0.0
  0
LINE
  8
001
 62
               3
  5
168
 10
491.0897453870993
 20
769.75950396906546
 30
0.0
 11
502.5897453870993
 21
769.75950396906546
 31
0.0
  0
LINE
  8
001
 62
               3
  5
169
 10
491.93974538709932
 20
765.75950396906546
 30
0.0
 11
501.73974538709939
 21
765.75950396906546
 31
0.0
  0
LINE
  8
001
  6
DASHED
 62
               3
  5
16A
 10
153.03994538709929
 20
1051.6367039691363
 30
0.0
 11
136.33994538709931
 21
1051.0041039691364
 31
0.0
  0
LINE
  8
001
 62
               3
  5
16B
 10
429.3397453870993
 20
879.75960396906544
 30
0.0
 11
506.8397453870993
 21
879.75960396906544
 31
0.0
  0
LINE
  8
001
 62
               3
  5
16C
 10
403.3397453870993
 20
879.75960396906544
 30
0.0
 11
418.3397453870993
 21
879.75960396906544
 31
0.0
  0
LINE
  8
001
  6
DASHED
 62
               3
  5
16D
 10
136.33994538709931
 20
1051.0041039691364
 30
0.0
 11
136.33994538709931
 21
1042.5150039691364
 31
0.0
  0
LINE
  8
001
  6
DASHED
 62
               3
  5
16E
 10
153.03994538709929
 20
1041.8824039691362
 30
0.0
 11
136.33994538709931
 21
1042.5150039691362
 31
0.0
  0
LINE
  8
001
 62
               3
  5
16F
 10
491.0897453870993
 20
769.75950396906546
 30
0.0
 11
491.0897453870993
 21
766.2503039690655
 31
0.0
  0
LINE
  8
001
 62
               3
  5
170
 10
491.93974538709932
 20
765.75950396906546
 30
0.0
 11
491.0897453870993
 21
766.2503039690655
 31
0.0
  0
LINE
  8
001
 62
               3
  5
171
 10
502.5897453870993
 20
766.2503039690655
 30
0.0
 11
501.73974538709939
 21
765.75950396906546
 31
0.0
  0
LINE
  8
001
 62
               3
  5
172
 10
493.95294538709931
 20
769.75950396906546
 30
0.0
 11
493.95294538709931
 21
766.2503039690655
 31
0.0
  0
LINE
  8
001
 62
               3
  5
173
 10
499.72654538709929
 20
769.75950396906546
 30
0.0
 11
499.72664538709938
 21
766.2503039690655
 31
0.0
  0
LINE
  8
001
 62
               3
  5
174
 10
502.5897453870993
 20
769.75950396906546
 30
0.0
 11
502.5897453870993
 21
766.2503039690655
 31
0.0
  0
LINE
  8
001
 62
               3
  5
175
 10
486.8397453870993
 20
769.75950396906546
 30
0.0
 11
506.8397453870993
 21
769.75950396906546
 31
0.0
  0
LINE
  8
001
 62
               3
  5
176
 10
152.03994538709929
 20
1035.7596039691362
 30
0.0
 11
152.03994538709929
 21
1057.7595039691362
 31
0.0
  0
LINE
  8
001
 62
               3
  5
177
 10
499.3397453870993
 20
779.25960396906544
 30
0.0
 11
499.3397453870993
 21
782.25960396906544
 31
0.0
  0
LINE
  8
001
 62
               3
  5
178
 10
494.3397453870993
 20
779.25960396906544
 30
0.0
 11
494.3397453870993
 21
782.25960396906544
 31
0.0
  0
LINE
  8
001
 62
               3
  5
179
 10
486.8397453870993
 20
782.25960396906544
 30
0.0
 11
506.8397453870993
 21
782.25960396906544
 31
0.0
  0
LINE
  8
001
 62
               3
  5
17A
 10
486.8397453870993
 20
779.25960396906544
 30
0.0
 11
506.8397453870993
 21
779.25960396906544
 31
0.0
  0
LINE
  8
001
 62
               3
  5
17B
 10
147.03994538709929
 20
1035.7596039691362
 30
0.0
 11
147.03994538709929
 21
1057.7596039691362
 31
0.0
  0
LINE
  8
001
 62
               3
  5
17C
 10
508.83994538709936
 20
805.75960396906544
 30
0.0
 11
508.8397453870993
 21
881.75960396906544
 31
0.0
  0
LINE
  8
001
 62
               3
  5
17D
 10
121.03994538709929
 20
1034.7596039691362
 30
0.0
 11
121.03994538709929
 21
1058.7596039691362
 31
0.0
  0
LINE
  8
001
 62
               3
  5
17E
 10
133.03994538709929
 20
1034.7595039691364
 30
0.0
 11
133.03994538709929
 21
1058.7595039691364
 31
0.0
  0
LINE
  8
001
 62
               3
  5
17F
 10
153.03994538709929
 20
1040.2596039691362
 30
0.0
 11
152.53994538709929
 21
1039.7596039691362
 31
0.0
  0
LINE
  8
001
 62
               3
  5
180
 10
152.53994538709929
 20
1053.7596039691362
 30
0.0
 11
153.03994538709929
 21
1053.2595039691362
 31
0.0
  0
LINE
  8
001
 62
               3
  5
181
 10
152.03994538709929
 20
1035.7596039691362
 30
0.0
 11
151.53994538709929
 21
1035.2596039691362
 31
0.0
  0
LINE
  8
001
 62
               3
  5
182
 10
109.03994538709929
 20
1041.7596039691362
 30
0.0
 11
105.03994538709929
 21
1043.2596039691362
 31
0.0
  0
LINE
  8
001
 62
               3
  5
183
 10
109.03994538709929
 20
1051.7596039691362
 30
0.0
 11
105.03994538709929
 21
1050.2596039691362
 31
0.0
  0
LINE
  8
001
 62
               3
  5
184
 10
147.53994538709929
 20
1058.2596039691362
 30
0.0
 11
147.03994538709929
 21
1057.7596039691362
 31
0.0
  0
LINE
  8
001
 62
               3
  5
185
 10
151.53994538709929
 20
1058.2596039691362
 30
0.0
 11
152.03994538709929
 21
1057.7595039691362
 31
0.0
  0
LINE
  8
001
 62
               3
  5
186
 10
147.03994538709929
 20
1035.7596039691362
 30
0.0
 11
147.53994538709929
 21
1035.2596039691362
 31
0.0
  0
LINE
  8
001
 62
               3
  5
187
 10
147.53994538709929
 20
1035.2596039691362
 30
0.0
 11
151.53994538709929
 21
1035.2596039691362
 31
0.0
  0
LINE
  8
001
 62
               3
  5
188
 10
147.53994538709929
 20
1058.2596039691362
 30
0.0
 11
151.53994538709929
 21
1058.2596039691362
 31
0.0
  0
LINE
  8
001
 62
               3
  5
189
 10
140.53994538709929
 20
1035.2596039691362
 30
0.0
 11
142.03994538709929
 21
1037.7596039691362
 31
0.0
  0
LINE
  8
001
 62
               3
  5
18A
 10
140.53994538709929
 20
1058.2596039691362
 30
0.0
 11
142.03994538709929
 21
1055.7596039691362
 31
0.0
  0
LINE
  8
001
 62
               3
  5
18B
 10
152.04004538709933
 20
1053.7596039691362
 30
0.0
 11
152.53994538709929
 21
1053.7596039691362
 31
0.0
  0
LINE
  8
001
 62
               3
  5
18C
 10
152.04004538709933
 20
1039.7596039691362
 30
0.0
 11
152.53994538709929
 21
1039.7596039691362
 31
0.0
  0
LINE
  8
001
 62
               3
  5
18D
 10
142.03994538709929
 20
1037.7596039691362
 30
0.0
 11
147.03994538709929
 21
1037.7596039691362
 31
0.0
  0
LINE
  8
001
 62
               3
  5
18E
 10
142.03994538709929
 20
1055.7596039691362
 30
0.0
 11
147.03994538709929
 21
1055.7596039691362
 31
0.0
  0
LINE
  8
001
 62
               3
  5
18F
 10
109.03994538709929
 20
1038.7596039691362
 30
0.0
 11
121.03994538709929
 21
1034.7596039691362
 31
0.0
  0
LINE
  8
001
 62
               3
  5
190
 10
109.03994538709929
 20
1054.7596039691362
 30
0.0
 11
121.03994538709929
 21
1058.7596039691362
 31
0.0
  0
LINE
  8
001
 62
               3
  5
191
 10
133.04004538709933
 20
1058.2596039691362
 30
0.0
 11
140.53994538709929
 21
1058.2596039691362
 31
0.0
  0
LINE
  8
001
 62
               3
  5
192
 10
133.04004538709933
 20
1035.2596039691362
 30
0.0
 11
140.53994538709929
 21
1035.2596039691362
 31
0.0
  0
LINE
  8
001
 62
               3
  5
193
 10
142.03994538709929
 20
1037.7596039691362
 30
0.0
 11
142.03994538709929
 21
1055.7596039691362
 31
0.0
  0
LINE
  8
001
 62
               3
  5
194
 10
140.53994538709929
 20
1035.2596039691362
 30
0.0
 11
140.53994538709929
 21
1058.2596039691362
 31
0.0
  0
LINE
  8
001
 62
               3
  5
195
 10
105.03994538709929
 20
1043.2596039691362
 30
0.0
 11
105.03994538709929
 21
1050.2596039691362
 31
0.0
  0
LINE
  8
001
 62
               3
  5
196
 10
109.03994538709929
 20
1038.7596039691362
 30
0.0
 11
109.03994538709929
 21
1054.7596039691362
 31
0.0
  0
LINE
  8
001
 62
               3
  5
197
 10
121.03994538709929
 20
1058.7596039691362
 30
0.0
 11
133.03994538709929
 21
1058.7595039691362
 31
0.0
  0
LINE
  8
001
 62
               3
  5
198
 10
121.03994538709929
 20
1034.7596039691362
 30
0.0
 11
133.03994538709929
 21
1034.7595039691362
 31
0.0
  0
LINE
  8
001
 62
               3
  5
199
 10
157.83984538709933
 20
870.75940396906549
 30
0.0
 11
157.83984538709933
 21
822.75950396906546
 31
0.0
  0
LINE
  8
001
 62
               3
  5
19A
 10
157.83984538709933
 20
870.75940396906549
 30
0.0
 11
159.57219178709937
 21
871.75960396906544
 31
0.0
  0
LINE
  8
001
 62
               3
  5
19B
 10
157.83984538709933
 20
822.75950396906546
 30
0.0
 11
159.57167218709941
 21
821.75960396906544
 31
0.0
  0
LINE
  8
001
 62
               3
  5
19C
 10
159.57184538709936
 20
821.75950396906546
 30
0.0
 11
159.57184538709936
 21
871.75940396906549
 31
0.0
  0
LINE
  8
001
 62
               3
  5
19D
 10
155.03994538709935
 20
855.15930396906549
 30
0.0
 11
156.83984538709933
 21
855.15930396906549
 31
0.0
  0
LINE
  8
001
 62
               3
  5
19E
 10
154.83984538709933
 20
838.1583039690654
 30
0.0
 11
154.83974538709936
 21
855.36040396906537
 31
0.0
  0
LINE
  8
001
 62
               3
  5
19F
 10
155.03994538709935
 20
838.3594039690654
 30
0.0
 11
156.83984538709933
 21
838.3594039690654
 31
0.0
  0
LINE
  8
001
 62
               3
  5
1A0
 10
86.239845387099365
 20
856.43350396906544
 30
0.0
 11
67.239845387099365
 21
851.68120396906545
 31
0.0
  0
LINE
  8
001
 62
               3
  5
1A1
 10
86.239845387099365
 20
837.08520396906545
 30
0.0
 11
67.239845387099365
 21
841.83730396906549
 31
0.0
  0
LINE
  8
001
 62
               3
  5
1A2
 10
153.03994538709929
 20
1040.2596039691362
 30
0.0
 11
153.03994538709929
 21
1053.2595039691362
 31
0.0
  0
LINE
  8
001
 62
               3
  5
1A3
 10
147.80654538709933
 20
820.5093039690654
 30
0.0
 11
147.80654538709933
 21
873.0093039690654
 31
0.0
  0
LINE
  8
001
 62
               3
  5
1A4
 10
122.32174538709933
 20
820.50900396906547
 30
0.0
 11
108.86634538709933
 21
820.50930396906551
 31
0.0
  0
LINE
  8
001
 62
               3
  5
1A5
 10
122.32174538709933
 20
873.00900396906547
 30
0.0
 11
108.86634538709933
 21
873.00930396906551
 31
0.0
  0
LINE
  8
001
 62
               3
  5
1A6
 10
122.32174538709933
 20
821.32960396906549
 30
0.0
 11
137.26114538709936
 21
821.32960396906549
 31
0.0
  0
LINE
  8
001
 62
               3
  5
1A7
 10
122.32174538709933
 20
872.18890396906545
 30
0.0
 11
137.26114538709936
 21
872.18890396906545
 31
0.0
  0
LINE
  8
001
 62
               3
  5
1A8
 10
219.83984538709933
 20
809.75960396906544
 30
0.0
 11
219.83984538709933
 21
883.75960396906544
 31
0.0
  0
LINE
  8
001
 62
               3
  5
1A9
 10
154.23984538709936
 20
831.5700039690654
 30
0.0
 11
150.44294538709937
 21
825.43120396906545
 31
0.0
  0
LINE
  8
001
 62
               3
  5
1AA
 10
150.44294538709937
 20
868.08730396906549
 30
0.0
 11
154.23984538709936
 21
861.94860396906552
 31
0.0
  0
LINE
  8
001
 62
               3
  5
1AB
 10
149.56414538709936
 20
825.43130396906543
 30
0.0
 11
150.44294538709937
 21
825.43120396906545
 31
0.0
  0
LINE
  8
001
 62
               3
  5
1AC
 10
67.239845387099365
 20
851.68120396906545
 30
0.0
 11
67.239845387099365
 21
841.83730396906549
 31
0.0
  0
LINE
  8
001
 62
               3
  5
1AD
 10
149.56414538709936
 20
868.08730396906549
 30
0.0
 11
150.44294538709937
 21
868.08730396906549
 31
0.0
  0
LINE
  8
001
 62
               3
  5
1AE
 10
106.78534538709931
 20
827.7593039690654
 30
0.0
 11
108.86634538709933
 21
820.5093039690654
 31
0.0
  0
LINE
  8
001
 62
               3
  5
1AF
 10
149.56414538709936
 20
822.14980396906549
 30
0.0
 11
147.80654538709933
 21
820.50930396906551
 31
0.0
  0
LINE
  8
001
 62
               3
  5
1B0
 10
149.56414538709936
 20
871.36870396906545
 30
0.0
 11
147.80654538709933
 21
873.0093039690654
 31
0.0
  0
LINE
  8
001
 62
               3
  5
1B1
 10
149.56414538709936
 20
822.14980396906549
 30
0.0
 11
149.56414538709936
 21
871.36870396906556
 31
0.0
  0
LINE
  8
001
 62
               3
  5
1B2
 10
137.26114538709936
 20
820.50900396906547
 30
0.0
 11
137.26114538709936
 21
873.00900396906547
 31
0.0
  0
LINE
  8
001
 62
               3
  5
1B3
 10
122.32174538709933
 20
820.50900396906547
 30
0.0
 11
122.32174538709933
 21
873.00900396906547
 31
0.0
  0
LINE
  8
001
 62
               3
  5
1B4
 10
108.86634538709933
 20
820.5093039690654
 30
0.0
 11
108.86634538709933
 21
873.0093039690654
 31
0.0
  0
LINE
  8
001
 62
               3
  5
1B5
 10
106.78534538709931
 20
865.7593039690654
 30
0.0
 11
108.86634538709933
 21
873.0093039690654
 31
0.0
  0
LINE
  8
001
 62
               3
  5
1B6
 10
154.23984538709936
 20
861.9486039690654
 30
0.0
 11
154.23984538709936
 21
831.5700039690654
 31
0.0
  0
LINE
  8
001
 62
               3
  5
1B7
 10
91.512545387099351
 20
827.7593039690654
 30
0.0
 11
91.512545387099351
 21
865.7593039690654
 31
0.0
  0
LINE
  8
001
 62
               3
  5
1B8
 10
86.239845387099365
 20
832.68120396906545
 30
0.0
 11
91.512545387099351
 21
827.7593039690654
 31
0.0
  0
LINE
  8
001
 62
               3
  5
1B9
 10
91.512545387099351
 20
865.7593039690654
 30
0.0
 11
86.239845387099365
 21
860.83730396906549
 31
0.0
  0
LINE
  8
001
 62
               3
  5
1BA
 10
106.78534538709931
 20
865.7593039690654
 30
0.0
 11
106.78534538709931
 21
827.7593039690654
 31
0.0
  0
LINE
  8
001
 62
               3
  5
1BB
 10
147.80654538709933
 20
820.5093039690654
 30
0.0
 11
137.26114538709936
 21
820.50900396906536
 31
0.0
  0
LINE
  8
001
 62
               3
  5
1BC
 10
147.80654538709933
 20
873.0093039690654
 30
0.0
 11
137.26114538709936
 21
873.00900396906536
 31
0.0
  0
LINE
  8
001
 62
               3
  5
1BD
 10
184.83984538709933
 20
882.25950396906546
 30
0.0
 11
190.43859183686271
 21
883.75960396906544
 31
0.0
  0
LINE
  8
001
 62
               3
  5
1BE
 10
202.83984538709933
 20
883.75950396906546
 30
0.0
 11
202.83984538709933
 21
809.75950396906546
 31
0.0
  0
LINE
  8
001
 62
               3
  5
1BF
 10
193.33984538709933
 20
883.75950396906546
 30
0.0
 11
193.33984538709933
 21
809.75970396906541
 31
0.0
  0
LINE
  8
001
 62
               3
  5
1C0
 10
190.43784538709934
 20
883.75940396906549
 30
0.0
 11
190.43784538709934
 21
809.75950396906546
 31
0.0
  0
LINE
  8
001
 62
               3
  5
1C1
 10
184.83984538709933
 20
882.25950396906546
 30
0.0
 11
184.83984538709933
 21
811.25950396906546
 31
0.0
  0
LINE
  8
001
 62
               3
  5
1C2
 10
184.83984538709933
 20
811.25950396906546
 30
0.0
 11
190.43747218709944
 21
809.75960396906544
 31
0.0
  0
LINE
  8
001
 62
               3
  5
1C3
 10
368.83984538709933
 20
883.75960396906544
 30
0.0
 11
368.83984538709933
 21
809.75940396906549
 31
0.0
  0
LINE
  8
001
  6
DASHED
 62
               3
  5
1C4
 10
128.83984538709933
 20
854.68710396906545
 30
0.0
 11
128.83984538709933
 21
838.83160396906544
 31
0.0
  0
LINE
  8
001
 62
               3
  5
1C5
 10
106.78534538709931
 20
827.7593039690654
 30
0.0
 11
91.512545387099351
 21
827.7593039690654
 31
0.0
  0
LINE
  8
001
 62
               3
  5
1C6
 10
106.78534538709931
 20
865.7593039690654
 30
0.0
 11
91.512545387099351
 21
865.7593039690654
 31
0.0
  0
LINE
  8
001
 62
               3
  5
1C7
 10
86.239845387099365
 20
860.83730396906549
 30
0.0
 11
86.239845387099365
 21
832.68120396906556
 31
0.0
  0
LINE
  8
001
  6
DASHED
 62
               3
  5
1C8
 10
154.83984538709933
 20
838.1583039690654
 30
0.0
 11
128.83984538709933
 21
838.83160396906544
 31
0.0
  0
LINE
  8
001
  6
DASHED
 62
               3
  5
1C9
 10
154.83974538709936
 20
855.36040396906549
 30
0.0
 11
128.83984538709933
 21
854.68710396906545
 31
0.0
  0
LINE
  8
001
 62
               3
  5
1CA
 10
157.83984538709933
 20
1226.2340998231823
 30
0.0
 11
157.83984538709933
 21
1178.2341998231823
 31
0.0
  0
LINE
  8
001
 62
               3
  5
1CB
 10
157.83984538709933
 20
1226.2340998231823
 30
0.0
 11
159.57236498709923
 21
1227.2343998231822
 31
0.0
  0
LINE
  8
001
 62
               3
  5
1CC
 10
157.83984538709933
 20
1178.2341998231823
 30
0.0
 11
159.57149898709943
 21
1177.2343998231822
 31
0.0
  0
LINE
  8
001
 62
               3
  5
1CD
 10
159.57184538709936
 20
1177.2341998231823
 30
0.0
 11
159.57184538709936
 21
1227.2340998231823
 31
0.0
  0
LINE
  8
001
 62
               3
  5
1CE
 10
155.03994538709935
 20
1210.6340998231822
 30
0.0
 11
156.83984538709933
 21
1210.6340998231822
 31
0.0
  0
LINE
  8
001
 62
               3
  5
1CF
 10
154.83984538709933
 20
1193.6329998231822
 30
0.0
 11
154.83974538709936
 21
1210.8350998231822
 31
0.0
  0
LINE
  8
001
 62
               3
  5
1D0
 10
155.03994538709935
 20
1193.8340998231822
 30
0.0
 11
156.83984538709933
 21
1193.8340998231822
 31
0.0
  0
LINE
  8
001
 62
               3
  5
1D1
 10
86.239845387099365
 20
1211.9082998231822
 30
0.0
 11
67.239845387099365
 21
1207.1558998231822
 31
0.0
  0
LINE
  8
001
 62
               3
  5
1D2
 10
86.239845387099365
 20
1192.5598998231821
 30
0.0
 11
67.239845387099365
 21
1197.3120998231821
 31
0.0
  0
LINE
  8
001
 62
               3
  5
1D3
 10
147.80654538709933
 20
1175.9839998231823
 30
0.0
 11
147.80654538709933
 21
1228.4839998231823
 31
0.0
  0
LINE
  8
001
 62
               3
  5
1D4
 10
122.32174538709933
 20
1175.9836998231822
 30
0.0
 11
108.86634538709933
 21
1175.9839998231821
 31
0.0
  0
LINE
  8
001
 62
               3
  5
1D5
 10
122.32174538709933
 20
1228.4836998231822
 30
0.0
 11
108.86634538709933
 21
1228.4839998231821
 31
0.0
  0
LINE
  8
001
 62
               3
  5
1D6
 10
122.32174538709933
 20
1176.8042998231822
 30
0.0
 11
137.26114538709936
 21
1176.8042998231822
 31
0.0
  0
LINE
  8
001
 62
               3
  5
1D7
 10
122.32174538709933
 20
1227.6636998231822
 30
0.0
 11
137.26114538709936
 21
1227.6636998231822
 31
0.0
  0
LINE
  8
001
 62
               3
  5
1D8
 10
219.83984538709933
 20
1165.2343998231822
 30
0.0
 11
219.83984538709933
 21
1239.2343998231822
 31
0.0
  0
LINE
  8
001
 62
               3
  5
1D9
 10
154.23984538709936
 20
1187.0447998231823
 30
0.0
 11
150.44294538709937
 21
1180.9058998231822
 31
0.0
  0
LINE
  8
001
 62
               3
  5
1DA
 10
150.44294538709937
 20
1223.5620998231823
 30
0.0
 11
154.23984538709936
 21
1217.4232998231823
 31
0.0
  0
LINE
  8
001
 62
               3
  5
1DB
 10
149.56414538709936
 20
1180.9060998231821
 30
0.0
 11
150.44294538709937
 21
1180.9058998231822
 31
0.0
  0
LINE
  8
001
 62
               3
  5
1DC
 10
67.239845387099365
 20
1207.1558998231822
 30
0.0
 11
67.239845387099365
 21
1197.3120998231821
 31
0.0
  0
LINE
  8
001
 62
               3
  5
1DD
 10
149.56414538709936
 20
1223.5619998231823
 30
0.0
 11
150.44294538709937
 21
1223.5620998231823
 31
0.0
  0
LINE
  8
001
 62
               3
  5
1DE
 10
106.78534538709931
 20
1183.2339998231823
 30
0.0
 11
108.86634538709933
 21
1175.9839998231823
 31
0.0
  0
LINE
  8
001
 62
               3
  5
1DF
 10
149.56414538709936
 20
1177.6245998231823
 30
0.0
 11
147.80654538709933
 21
1175.9839998231823
 31
0.0
  0
LINE
  8
001
 62
               3
  5
1E0
 10
149.56414538709936
 20
1226.8433998231822
 30
0.0
 11
147.80654538709933
 21
1228.4839998231821
 31
0.0
  0
LINE
  8
001
 62
               3
  5
1E1
 10
149.56414538709936
 20
1177.6245998231823
 30
0.0
 11
149.56414538709936
 21
1226.8433998231822
 31
0.0
  0
LINE
  8
001
 62
               3
  5
1E2
 10
137.26114538709936
 20
1175.9836998231822
 30
0.0
 11
137.26114538709936
 21
1228.4836998231822
 31
0.0
  0
LINE
  8
001
 62
               3
  5
1E3
 10
122.32174538709933
 20
1175.9836998231822
 30
0.0
 11
122.32174538709933
 21
1228.4836998231822
 31
0.0
  0
LINE
  8
001
 62
               3
  5
1E4
 10
108.86634538709933
 20
1175.9839998231823
 30
0.0
 11
108.86634538709933
 21
1228.4839998231823
 31
0.0
  0
LINE
  8
001
 62
               3
  5
1E5
 10
106.78534538709931
 20
1221.2339998231823
 30
0.0
 11
108.86634538709933
 21
1228.4839998231823
 31
0.0
  0
LINE
  8
001
 62
               3
  5
1E6
 10
154.23984538709936
 20
1217.4232998231823
 30
0.0
 11
154.23984538709936
 21
1187.0447998231825
 31
0.0
  0
LINE
  8
001
 62
               3
  5
1E7
 10
91.512545387099351
 20
1183.2339998231823
 30
0.0
 11
91.512545387099351
 21
1221.2339998231823
 31
0.0
  0
LINE
  8
001
 62
               3
  5
1E8
 10
86.239845387099365
 20
1188.1558998231822
 30
0.0
 11
91.512545387099351
 21
1183.2339998231821
 31
0.0
  0
LINE
  8
001
 62
               3
  5
1E9
 10
91.512545387099351
 20
1221.2339998231823
 30
0.0
 11
86.239845387099365
 21
1216.3120998231825
 31
0.0
  0
LINE
  8
001
 62
               3
  5
1EA
 10
106.78534538709931
 20
1221.2339998231823
 30
0.0
 11
106.78534538709931
 21
1183.2339998231823
 31
0.0
  0
LINE
  8
001
 62
               3
  5
1EB
 10
147.80654538709933
 20
1175.9839998231823
 30
0.0
 11
137.26114538709936
 21
1175.9836998231824
 31
0.0
  0
LINE
  8
001
 62
               3
  5
1EC
 10
147.80654538709933
 20
1228.4839998231823
 30
0.0
 11
137.26114538709936
 21
1228.4836998231824
 31
0.0
  0
LINE
  8
001
 62
               3
  5
1ED
 10
184.83984538709933
 20
1237.7341998231823
 30
0.0
 11
190.43896506174406
 21
1239.2343998231822
 31
0.0
  0
LINE
  8
001
 62
               3
  5
1EE
 10
184.83984538709933
 20
1227.2340998231823
 30
0.0
 11
183.83984538709933
 21
1227.2341998231823
 31
0.0
  0
LINE
  8
001
 62
               3
  5
1EF
 10
202.83984538709933
 20
1239.2341998231823
 30
0.0
 11
202.83984538709933
 21
1165.2341998231823
 31
0.0
  0
LINE
  8
001
 62
               3
  5
1F0
 10
193.33984538709933
 20
1239.2341998231823
 30
0.0
 11
193.33984538709933
 21
1165.2344998231822
 31
0.0
  0
LINE
  8
001
 62
               3
  5
1F1
 10
190.43784538709934
 20
1239.2340998231823
 30
0.0
 11
190.43784538709934
 21
1165.2341998231823
 31
0.0
  0
LINE
  8
001
 62
               3
  5
1F2
 10
184.83984538709933
 20
1237.7341998231823
 30
0.0
 11
184.83984538709933
 21
1166.7341998231823
 31
0.0
  0
LINE
  8
001
 62
               3
  5
1F3
 10
184.83984538709933
 20
1177.2341998231823
 30
0.0
 11
183.83984538709933
 21
1177.2341998231823
 31
0.0
  0
LINE
  8
001
 62
               3
  5
1F4
 10
184.83984538709933
 20
1166.7341998231823
 30
0.0
 11
190.43709898709955
 21
1165.2343998231822
 31
0.0
  0
LINE
  8
001
 62
               3
  5
1F5
 10
149.37964538709934
 20
930.75960396906544
 30
0.0
 11
143.37964538709934
 21
930.75950396906546
 31
0.0
  0
LINE
  8
001
  6
DASHED
 62
               3
  5
1F6
 10
128.83984538709933
 20
1210.1617998231823
 30
0.0
 11
128.83984538709933
 21
1194.3063998231823
 31
0.0
  0
LINE
  8
001
  6
CENTER
  5
1F7
 10
60.646878516982099
 20
1202.2343998231822
 30
0.0
 11
630.83974538709936
 21
1202.2343998231822
 31
0.0
  0
LINE
  8
001
 62
               3
  5
1F8
 10
106.78534538709931
 20
1183.2339998231823
 30
0.0
 11
91.512545387099351
 21
1183.2339998231823
 31
0.0
  0
LINE
  8
001
 62
               3
  5
1F9
 10
106.78534538709931
 20
1221.2339998231823
 30
0.0
 11
91.512545387099351
 21
1221.2339998231823
 31
0.0
  0
LINE
  8
001
 62
               3
  5
1FA
 10
86.239845387099365
 20
1216.3120998231823
 30
0.0
 11
86.239845387099365
 21
1188.1558998231822
 31
0.0
  0
LINE
  8
001
  6
DASHED
 62
               3
  5
1FB
 10
154.83984538709933
 20
1193.6329998231822
 30
0.0
 11
128.83984538709933
 21
1194.3063998231823
 31
0.0
  0
LINE
  8
001
  6
DASHED
 62
               3
  5
1FC
 10
154.83974538709936
 20
1210.8350998231822
 30
0.0
 11
128.83984538709933
 21
1210.1617998231823
 31
0.0
  0
LINE
  8
001
  5
1FD
 10
371.83984538709933
 20
799.75960396906544
 30
0.0
 11
371.83984538709933
 21
857.75960396906544
 31
0.0
  0
LINE
  8
001
 62
               3
  5
1FE
 10
126.03994538709929
 20
957.75960396906544
 30
0.0
 11
126.03994538709929
 21
935.75960396906544
 31
0.0
  0
LINE
  8
001
 62
               3
  5
1FF
 10
116.03994538709929
 20
957.75960396906544
 30
0.0
 11
113.03994538709929
 21
954.75960396906544
 31
0.0
  0
LINE
  8
001
 62
               3
  5
200
 10
113.03994538709929
 20
938.75960396906544
 30
0.0
 11
116.03994538709929
 21
935.75960396906544
 31
0.0
  0
LINE
  8
001
 62
               3
  5
201
 10
116.03994538709929
 20
935.75960396906544
 30
0.0
 11
116.03994538709929
 21
957.75960396906544
 31
0.0
  0
LINE
  8
001
 62
               3
  5
202
 10
153.03994538709929
 20
956.01780396906543
 30
0.0
 11
153.03994538709929
 21
937.50140396906545
 31
0.0
  0
LINE
  8
001
  5
203
 10
398.8397453870993
 20
791.75960396906544
 30
0.0
 11
379.83984538709933
 21
791.75960396906544
 31
0.0
  0
LINE
  8
001
 62
               3
  5
204
 10
134.87964538709934
 20
962.25960396906544
 30
0.0
 11
143.37964538709934
 21
962.25960396906544
 31
0.0
  0
LINE
  8
001
 62
               3
  5
205
 10
134.87964538709934
 20
931.25960396906544
 30
0.0
 11
143.37964538709934
 21
931.25960396906544
 31
0.0
  0
LINE
  8
001
 62
               3
  5
206
 10
134.87964538709934
 20
962.75950396906546
 30
0.0
 11
127.37964538709934
 21
962.75960396906544
 31
0.0
  0
LINE
  8
001
 62
               3
  5
207
 10
134.87964538709934
 20
930.75950396906546
 30
0.0
 11
127.37964538709934
 21
930.75960396906544
 31
0.0
  0
LINE
  8
001
 62
               3
  5
208
 10
149.37964538709934
 20
930.75960396906544
 30
0.0
 11
149.37964538709934
 21
962.75960396906544
 31
0.0
  0
LINE
  8
001
 62
               3
  5
209
 10
149.37964538709934
 20
962.75960396906544
 30
0.0
 11
143.37964538709934
 21
962.75950396906546
 31
0.0
  0
LINE
  8
001
 62
               3
  5
20A
 10
126.03994538709929
 20
935.75960396906544
 30
0.0
 11
116.03994538709929
 21
935.75960396906544
 31
0.0
  0
LINE
  8
001
 62
               3
  5
20B
 10
126.03994538709929
 20
957.75960396906544
 30
0.0
 11
116.03994538709929
 21
957.75960396906544
 31
0.0
  0
LINE
  8
001
 62
               3
  5
20C
 10
113.03994538709929
 20
954.75960396906544
 30
0.0
 11
113.03994538709929
 21
938.75960396906544
 31
0.0
  0
LINE
  8
001
 62
               3
  5
20D
 10
113.03994538709929
 20
941.21410396906538
 30
0.0
 11
103.53994538709929
 21
943.75960396906544
 31
0.0
  0
LINE
  8
001
 62
               3
  5
20E
 10
113.03994538709929
 20
952.30520396906547
 30
0.0
 11
103.53994538709929
 21
949.75960396906544
 31
0.0
  0
LINE
  8
001
 62
               4
  5
20F
 10
720.93588035827293
 20
807.75960396906544
 30
0.0
 11
729.68898035827294
 21
807.75960396906544
 31
0.0
  0
LINE
  8
001
 62
               3
  5
210
 10
127.37964538709934
 20
962.75960396906544
 30
0.0
 11
126.03994538709929
 21
957.75960396906544
 31
0.0
  0
LINE
  8
001
 62
               3
  5
211
 10
127.37964538709934
 20
930.75960396906544
 30
0.0
 11
127.37964538709934
 21
962.75960396906544
 31
0.0
  0
LINE
  8
001
 62
               4
  5
212
 10
720.93588035827293
 20
809.75960396906544
 30
0.0
 11
728.40338035827301
 21
809.75960396906544
 31
0.0
  0
LINE
  8
001
 62
               3
  5
213
 10
134.87964538709934
 20
930.75950396906546
 30
0.0
 11
134.87964538709934
 21
962.75950396906546
 31
0.0
  0
LINE
  8
001
  5
214
 10
718.93588035827293
 20
809.22370396906547
 30
0.0
 11
718.93588035827293
 21
811.87288262311733
 31
0.0
  0
LINE
  8
001
 62
               3
  5
215
 10
143.37964538709934
 20
930.75950396906546
 30
0.0
 11
143.37964538709934
 21
962.75950396906546
 31
0.0
  0
LINE
  8
001
 62
               3
  5
216
 10
150.37964538709934
 20
931.75960396906544
 30
0.0
 11
150.37964538709934
 21
961.75960396906544
 31
0.0
  0
LINE
  8
001
 62
               3
  5
217
 10
150.37964538709934
 20
961.75960396906544
 30
0.0
 11
149.37964538709934
 21
962.75960396906544
 31
0.0
  0
LINE
  8
001
 62
               3
  5
218
 10
150.37964538709934
 20
931.75960396906544
 30
0.0
 11
149.37964538709934
 21
930.75960396906544
 31
0.0
  0
LINE
  8
001
 62
               3
  5
219
 10
126.03994538709929
 20
935.75960396906544
 30
0.0
 11
127.37964538709934
 21
930.75960396906544
 31
0.0
  0
LINE
  8
001
 62
               3
  5
21A
 10
150.37964538709934
 20
959.75950396906546
 30
0.0
 11
150.87964538709934
 21
959.75960396906544
 31
0.0
  0
LINE
  8
001
 62
               3
  5
21B
 10
103.53994538709929
 20
949.75960396906544
 30
0.0
 11
103.53994538709929
 21
943.75960396906544
 31
0.0
  0
LINE
  8
001
 62
               3
  5
21C
 10
470.80424538709934
 20
1167.2343998231822
 30
0.0
 11
466.8397453870993
 21
1171.1989998231822
 31
0.0
  0
LINE
  8
001
 62
               3
  5
21D
 10
547.87534538709929
 20
1167.2343998231822
 30
0.0
 11
551.83974538709924
 21
1171.1986998231823
 31
0.0
  0
LINE
  8
001
 62
               3
  5
21E
 10
547.87534538709929
 20
1167.2343998231822
 30
0.0
 11
470.80424538709929
 21
1167.2343998231822
 31
0.0
  0
LINE
  8
001
 62
               3
  5
21F
 10
470.80424538709934
 20
1237.2343998231822
 30
0.0
 11
466.8397453870993
 21
1233.2697998231822
 31
0.0
  0
LINE
  8
001
 62
               3
  5
220
 10
547.87534538709929
 20
1237.2343998231822
 30
0.0
 11
551.83974538709924
 21
1233.2699998231824
 31
0.0
  0
LINE
  8
001
 62
               3
  5
221
 10
150.37964538709934
 20
933.75970396906541
 30
0.0
 11
150.87964538709934
 21
933.75960396906544
 31
0.0
  0
LINE
  8
001
 62
               3
  5
222
 10
466.8397453870993
 20
1233.2697998231822
 30
0.0
 11
466.8397453870993
 21
1171.1989998231822
 31
0.0
  0
LINE
  8
001
 62
               3
  5
223
 10
547.87534538709929
 20
1237.2343998231822
 30
0.0
 11
470.80424538709929
 21
1237.2343998231822
 31
0.0
  0
LINE
  8
001
 62
               3
  5
224
 10
551.83974538709936
 20
1233.2699998231824
 30
0.0
 11
551.83974538709936
 21
1171.1986998231823
 31
0.0
  0
LINE
  8
001
 62
               3
  5
225
 10
568.83974538709936
 20
1256.2343998231822
 30
0.0
 11
568.83974538709936
 21
1148.2343998231822
 31
0.0
  0
LINE
  8
001
 62
               3
  5
226
 10
625.4781453870994
 20
816.52450396906545
 30
0.0
 11
616.28774538709945
 21
803.39920396906541
 31
0.0
  0
LINE
  8
001
 62
               3
  5
227
 10
601.83974538709936
 20
802.75960396906544
 30
0.0
 11
601.83974538709936
 21
1042.7596039690654
 31
0.0
  0
LINE
  8
001
 62
               3
  5
228
 10
563.28314538709924
 20
807.25960396906544
 30
0.0
 11
565.30394538709925
 21
803.75960396906544
 31
0.0
  0
LINE
  8
001
 62
               3
  5
229
 10
615.83974538709936
 20
1042.4088039690655
 30
0.0
 11
615.83974538709936
 21
1028.7596039690657
 31
0.0
  0
LINE
  8
001
 62
               3
  5
22A
 10
568.83974538709936
 20
1040.7596039690654
 30
0.0
 11
568.83974538709936
 21
932.49170396906538
 31
0.0
  0
LINE
  8
001
 62
               3
  5
22B
 10
548.52984538709939
 20
885.75960396906544
 30
0.0
 11
551.83974538709936
 21
885.75960396906544
 31
0.0
  0
LINE
  8
001
 62
               3
  5
22C
 10
804.995380358273
 20
1038.7596039690654
 30
0.0
 11
824.86438035827291
 21
1004.3457039690654
 31
0.0
  0
LINE
  8
001
 62
               3
  5
22D
 10
825.93638035827303
 20
933.39240396906541
 30
0.0
 11
825.93638035827303
 21
1000.3457039690654
 31
0.0
  0
LINE
  8
001
 62
               3
  5
22E
 10
726.93588035827293
 20
815.75960396906544
 30
0.0
 11
726.93588035827293
 21
900.34920396906546
 31
0.0
  0
LINE
  8
001
 62
               3
  5
22F
 10
726.45338035827285
 20
903.08530396906542
 30
0.0
 11
716.41848035827286
 21
930.65630396906545
 31
0.0
  0
LINE
  8
001
 62
               3
  5
230
 10
814.93638035827303
 20
815.75960396906544
 30
0.0
 11
814.93638035827303
 21
858.05435396906546
 31
0.0
  0
LINE
  8
001
 62
               3
  5
231
 10
715.93608035827287
 20
933.39250396906539
 30
0.0
 11
715.93588035827281
 21
1000.3458039690654
 31
0.0
  0
LINE
  8
001
 62
               3
  5
232
 10
736.87668035827301
 20
1038.7596039690654
 30
0.0
 11
717.00778035827295
 21
1004.3458039690654
 31
0.0
  0
LINE
  8
001
 62
               3
  5
233
 10
150.87964538709934
 20
959.75960396906544
 30
0.0
 11
153.03994538709929
 21
956.01780396906543
 31
0.0
  0
LINE
  8
001
 62
               3
  5
234
 10
798.06728035827291
 20
1042.7596039690654
 30
0.0
 11
743.80478035827286
 21
1042.7596039690654
 31
0.0
  0
LINE
  8
001
 62
               3
  5
235
 10
815.418380358273
 20
903.08520396906545
 30
0.0
 11
825.45338035827308
 21
930.65620396906547
 31
0.0
  0
LINE
  8
001
 62
               3
  5
236
 10
153.03994538709929
 20
937.50140396906545
 30
0.0
 11
150.87964538709934
 21
933.75960396906544
 31
0.0
  0
LINE
  8
001
 62
               3
  5
237
 10
620.83974538709936
 20
1034.4383039690656
 30
0.0
 11
625.55414538709942
 21
1026.5923039690656
 31
0.0
  0
LINE
  8
001
 62
               3
  5
238
 10
558.32224538709943
 20
929.67340396906548
 30
0.0
 11
568.83974538709936
 21
932.49170396906538
 31
0.0
  0
LINE
  8
001
 62
               3
  5
239
 10
564.34544538709929
 20
1257.2343998231822
 30
0.0
 11
615.83974538709924
 21
1257.2343998231822
 31
0.0
  0
LINE
  8
001
 62
               3
  5
23A
 10
570.83974538709936
 20
1042.7596039690654
 30
0.0
 11
614.99124538709941
 21
1042.7596039690654
 31
0.0
  0
LINE
  8
001
 62
               3
  5
23B
 10
601.83974538709936
 20
1257.2343998231822
 30
0.0
 11
601.83974538709936
 21
1147.2343998231822
 31
0.0
  0
LINE
  8
001
 62
               3
  5
23C
 10
568.83974538709936
 20
1255.2343998231822
 30
0.0
 11
568.83974538709936
 21
1149.2343998231822
 31
0.0
  0
LINE
  8
001
 62
               3
  5
23D
 10
541.11884538709933
 20
883.75960396906544
 30
0.0
 11
522.83974538709924
 21
883.75960396906544
 31
0.0
  0
LINE
  8
001
 62
               3
  5
23E
 10
466.8397453870993
 20
1066.7596039690654
 30
0.0
 11
466.8397453870993
 21
1048.7596039690654
 31
0.0
  0
LINE
  8
001
 62
               3
  5
23F
 10
468.4231453870994
 20
1047.7597039690654
 30
0.0
 11
467.8397453870993
 21
1047.7596039690654
 31
0.0
  0
LINE
  8
001
 62
               3
  5
240
 10
735.93608035827287
 20
1079.2596039690654
 30
0.0
 11
735.93608035827287
 21
1066.7596039690654
 31
0.0
  0
LINE
  8
001
 62
               4
  5
241
 10
522.83974538709936
 20
912.75960396906544
 30
0.0
 11
371.83984538709939
 21
912.75960396906544
 31
0.0
  0
LINE
  8
001
 62
               3
  5
242
 10
738.43608035827287
 20
1081.7596039690654
 30
0.0
 11
735.93608035827287
 21
1079.2596039690654
 31
0.0
  0
LINE
  8
001
 62
               3
  5
243
 10
739.31498035827281
 20
1041.3807039690655
 30
0.0
 11
737.93608035827287
 21
1042.7596039690657
 31
0.0
  0
LINE
  8
001
 62
               3
  5
244
 10
567.03594538709945
 20
802.75960396906544
 30
0.0
 11
615.05904538709945
 21
802.75960396906544
 31
0.0
  0
LINE
  8
001
 62
               4
  5
245
 10
371.83984538709933
 20
912.75960396906544
 30
0.0
 11
371.83984538709933
 21
757.75960396906544
 31
0.0
  0
LINE
  8
001
 62
               3
  5
246
 10
620.83974538709936
 20
1037.4910039690653
 30
0.0
 11
620.53984538709938
 21
1038.0107039690652
 31
0.0
  0
LINE
  8
001
 62
               3
  5
247
 10
620.53984538709938
 20
1038.0107039690654
 30
0.0
 11
615.83994538709942
 21
1038.0106039690654
 31
0.0
  0
LINE
  8
001
 62
               3
  5
248
 10
737.93608035827287
 20
1042.7596039690654
 30
0.0
 11
735.93608035827287
 21
1066.7596039690654
 31
0.0
  0
LINE
  8
001
 62
               3
  5
249
 10
522.83974538709936
 20
883.75960396906544
 30
0.0
 11
522.83974538709936
 21
809.75960396906544
 31
0.0
  0
LINE
  8
001
 62
               3
  5
24A
 10
803.93638035827303
 20
1042.7596039690654
 30
0.0
 11
805.93638035827303
 21
1066.7596039690654
 31
0.0
  0
LINE
  8
001
 62
               3
  5
24B
 10
802.55738035827289
 20
1041.3808039690655
 30
0.0
 11
803.93638035827291
 21
1042.7596039690654
 31
0.0
  0
LINE
  8
001
 62
               3
  5
24C
 10
620.53984538709938
 20
1029.5107039690654
 30
0.0
 11
620.83974538709936
 21
1030.0303039690655
 31
0.0
  0
LINE
  8
001
 62
               3
  5
24D
 10
620.83974538709936
 20
1030.0303039690655
 30
0.0
 11
620.83974538709936
 21
1037.4910039690653
 31
0.0
  0
LINE
  8
001
 62
               3
  5
24E
 10
620.53984538709938
 20
1038.0107039690654
 30
0.0
 11
620.53984538709938
 21
1029.5107039690654
 31
0.0
  0
LINE
  8
001
 62
               3
  5
24F
 10
620.53984538709938
 20
1029.5107039690654
 30
0.0
 11
615.83994538709942
 21
1029.5107039690654
 31
0.0
  0
LINE
  8
001
  6
CENTER
  5
250
 10
770.93572335827298
 20
747.75960396906544
 30
0.0
 11
770.93612335827299
 21
1091.7595039690655
 31
0.0
  0
LINE
  8
001
 62
               3
  5
251
 10
620.5397453870994
 20
805.50990396906548
 30
0.0
 11
617.83974538709936
 21
805.50990396906548
 31
0.0
  0
LINE
  8
001
 62
               3
  5
252
 10
620.5397453870994
 20
809.4717039690654
 30
0.0
 11
620.5397453870994
 21
805.50990396906536
 31
0.0
  0
LINE
  8
001
 62
               3
  5
253
 10
620.83974538709936
 20
806.02950396906544
 30
0.0
 11
620.83974538709936
 21
809.90010396906541
 31
0.0
  0
LINE
  8
001
 62
               3
  5
254
 10
620.5397453870994
 20
805.50990396906548
 30
0.0
 11
620.83974538709936
 21
806.02950396906544
 31
0.0
  0
LINE
  8
001
 62
               3
  5
255
 10
615.83974538709936
 20
1223.2333998231823
 30
0.0
 11
615.83974538709936
 21
1242.6448998231822
 31
0.0
  0
LINE
  8
001
 62
               3
  5
256
 10
625.83974538709936
 20
1025.5622039690654
 30
0.0
 11
625.83974538709936
 21
817.67170396906545
 31
0.0
  0
LINE
  8
001
 62
               3
  5
257
 10
522.83974538709936
 20
809.75960396906544
 30
0.0
 11
522.83974538709936
 21
883.75960396906544
 31
0.0
  0
LINE
  8
001
 62
               3
  5
258
 10
556.83974538709936
 20
890.75960396906544
 30
0.0
 11
556.83974538709936
 21
927.74160396906541
 31
0.0
  0
LINE
  8
001
 62
               3
  5
259
 10
616.83974538709936
 20
1027.7596039690654
 30
0.0
 11
624.85284538709936
 21
1027.7596039690654
 31
0.0
  0
LINE
  8
001
 62
               3
  5
25A
 10
615.83974538709936
 20
1161.8237998231823
 30
0.0
 11
615.83974538709936
 21
1181.2352998231822
 31
0.0
  0
LINE
  8
001
 62
               3
  5
25B
 10
625.83974538709936
 20
1156.2383998231821
 30
0.0
 11
615.83974538709936
 21
1147.2343998231822
 31
0.0
  0
LINE
  8
001
 62
               3
  5
25C
 10
620.53984538709938
 20
1224.9843998231822
 30
0.0
 11
615.83994538709942
 21
1224.9843998231822
 31
0.0
  0
LINE
  8
001
 62
               3
  5
25D
 10
620.53984538709938
 20
1233.4843998231822
 30
0.0
 11
620.53984538709938
 21
1224.9843998231822
 31
0.0
  0
LINE
  8
001
 62
               3
  5
25E
 10
739.93588035827293
 20
802.75960396906544
 30
0.0
 11
801.93638035827303
 21
802.75960396906544
 31
0.0
  0
LINE
  8
001
 62
               3
  5
25F
 10
620.83994538709931
 20
1225.5039998231823
 30
0.0
 11
620.83994538709931
 21
1232.9646998231824
 31
0.0
  0
LINE
  8
001
 62
               3
  5
260
 10
620.53984538709938
 20
1224.9843998231822
 30
0.0
 11
620.83994538709942
 21
1225.5039998231823
 31
0.0
  0
LINE
  8
001
 62
               3
  5
261
 10
620.53984538709938
 20
1233.4843998231822
 30
0.0
 11
615.83994538709942
 21
1233.4843998231822
 31
0.0
  0
LINE
  8
001
 62
               3
  5
262
 10
620.83994538709931
 20
1232.9646998231824
 30
0.0
 11
620.53984538709926
 21
1233.4843998231822
 31
0.0
  0
LINE
  8
001
 62
               3
  5
263
 10
615.83974538709936
 20
1223.2333998231823
 30
0.0
 11
615.83974538709936
 21
1242.6448998231822
 31
0.0
  0
LINE
  8
001
 62
               3
  5
264
 10
619.35294538709945
 20
1223.2333998231823
 30
0.0
 11
615.83974538709936
 21
1223.2333998231823
 31
0.0
  0
LINE
  8
001
 62
               3
  5
265
 10
558.95304538709934
 20
809.75960396906544
 30
0.0
 11
522.83974538709924
 21
809.75960396906544
 31
0.0
  0
LINE
  8
001
  6
CENTER
  5
266
 10
835.93638035827303
 20
986.75960396906544
 30
0.0
 11
705.93568035827298
 21
986.75960396906544
 31
0.0
  0
LINE
  8
001
 62
               3
  5
267
 10
625.83974538709936
 20
1248.2302998231821
 30
0.0
 11
625.83974538709936
 21
1156.2383998231821
 31
0.0
  0
LINE
  8
001
 62
               3
  5
268
 10
619.35284538709925
 20
1181.2352998231822
 30
0.0
 11
615.83974538709924
 21
1181.2352998231822
 31
0.0
  0
LINE
  8
001
 62
               3
  5
269
 10
615.83974538709936
 20
1181.2352998231822
 30
0.0
 11
615.83974538709936
 21
1161.8237998231823
 31
0.0
  0
LINE
  8
001
 62
               3
  5
26A
 10
564.34524538709934
 20
1147.2343998231822
 30
0.0
 11
615.83974538709924
 21
1147.2343998231822
 31
0.0
  0
LINE
  8
001
 62
               3
  5
26B
 10
620.83974538709936
 20
1171.5038998231821
 30
0.0
 11
620.53984538709938
 21
1170.9843998231822
 31
0.0
  0
LINE
  8
001
 62
               3
  5
26C
 10
620.53984538709938
 20
1170.9843998231822
 30
0.0
 11
615.83974538709936
 21
1170.9843998231822
 31
0.0
  0
LINE
  8
001
 62
               3
  5
26D
 10
620.53984538709938
 20
1179.4843998231822
 30
0.0
 11
620.83974538709936
 21
1178.9646998231824
 31
0.0
  0
LINE
  8
001
 62
               3
  5
26E
 10
620.83974538709936
 20
1178.9646998231824
 30
0.0
 11
620.83974538709936
 21
1171.5038998231823
 31
0.0
  0
LINE
  8
001
 62
               3
  5
26F
 10
620.53984538709938
 20
1170.9843998231822
 30
0.0
 11
620.53984538709938
 21
1179.4843998231822
 31
0.0
  0
LINE
  8
001
 62
               3
  5
270
 10
620.53984538709938
 20
1179.4843998231822
 30
0.0
 11
615.83994538709942
 21
1179.4843998231822
 31
0.0
  0
LINE
  8
001
 62
               3
  5
271
 10
615.83974538709936
 20
1161.8237998231823
 30
0.0
 11
623.76194538709944
 21
1172.4476998231821
 31
0.0
  0
LINE
  8
001
 62
               3
  5
272
 10
615.83974538709936
 20
1257.2343998231822
 30
0.0
 11
625.83974538709936
 21
1248.2302998231821
 31
0.0
  0
LINE
  8
001
 62
               3
  5
273
 10
616.27704538709941
 20
1042.0321039690655
 30
0.0
 11
618.69334538709938
 21
1038.0107039690654
 31
0.0
  0
LINE
  8
001
  5
274
 10
446.8397453870993
 20
865.75960396906544
 30
0.0
 11
379.83984538709933
 21
865.75960396906544
 31
0.0
  0
LINE
  8
001
  5
275
 10
399.8397453870993
 20
792.75960396906544
 30
0.0
 11
399.8397453870993
 21
807.75960396906544
 31
0.0
  0
LINE
  8
001
  5
276
 10
453.8397453870993
 20
809.75960396906544
 30
0.0
 11
401.8397453870993
 21
809.75960396906544
 31
0.0
  0
LINE
  8
001
  5
277
 10
467.8397453870993
 20
822.25960396906544
 30
0.0
 11
458.38154538709938
 21
822.25960396906544
 31
0.0
  0
LINE
  8
001
  5
278
 10
429.8397453870993
 20
865.75960396906544
 30
0.0
 11
429.8397453870993
 21
869.25960396906544
 31
0.0
  0
LINE
  8
001
 62
               3
  5
279
 10
803.43638035827303
 20
1081.7596039690654
 30
0.0
 11
805.93638035827303
 21
1079.2596039690654
 31
0.0
  0
LINE
  8
001
  5
27A
 10
440.3397453870993
 20
869.75960396906544
 30
0.0
 11
433.3397453870993
 21
869.75960396906544
 31
0.0
  0
LINE
  8
001
  5
27B
 10
433.8397453870993
 20
871.25960396906544
 30
0.0
 11
433.8397453870993
 21
869.75960396906544
 31
0.0
  0
LINE
  8
001
  5
27C
 10
439.8397453870993
 20
871.25960396906544
 30
0.0
 11
439.8397453870993
 21
869.75960396906544
 31
0.0
  0
LINE
  8
001
  5
27D
 10
430.48984538709936
 20
874.90960396906542
 30
0.0
 11
443.18974538709932
 21
874.90960396906542
 31
0.0
  0
LINE
  8
001
  5
27E
 10
431.3397453870993
 20
875.75960396906544
 30
0.0
 11
430.48984538709936
 21
874.90960396906542
 31
0.0
  0
LINE
  8
001
  5
27F
 10
443.18974538709932
 20
874.90960396906542
 30
0.0
 11
442.3397453870993
 21
875.75960396906544
 31
0.0
  0
LINE
  8
001
  5
280
 10
443.18974538709932
 20
871.25960396906544
 30
0.0
 11
430.48984538709936
 21
871.25960396906544
 31
0.0
  0
LINE
  8
001
  5
281
 10
431.3397453870993
 20
875.75960396906544
 30
0.0
 11
442.3397453870993
 21
875.75960396906544
 31
0.0
  0
LINE
  8
001
  5
282
 10
430.48984538709936
 20
874.90960396906542
 30
0.0
 11
430.48984538709936
 21
871.25960396906544
 31
0.0
  0
LINE
  8
001
 62
               4
  5
283
 10
542.83974538709936
 20
757.75960396906544
 30
0.0
 11
371.83984538709939
 21
757.75960396906544
 31
0.0
  0
LINE
  8
001
  5
284
 10
443.18974538709932
 20
874.90960396906542
 30
0.0
 11
443.18974538709932
 21
871.25960396906544
 31
0.0
  0
LINE
  8
001
 62
               3
  5
285
 10
735.93608035827287
 20
1076.7596039690654
 30
0.0
 11
805.93638035827291
 21
1076.7596039690654
 31
0.0
  0
LINE
  8
001
  5
286
 10
458.38154538709938
 20
811.25960396906544
 30
0.0
 11
467.8397453870993
 21
811.25960396906544
 31
0.0
  0
LINE
  8
001
  5
287
 10
467.8397453870993
 20
822.25960396906544
 30
0.0
 11
467.8397453870993
 21
811.25960396906544
 31
0.0
  0
LINE
  8
001
 62
               3
  5
288
 10
805.93638035827303
 20
1079.2596039690654
 30
0.0
 11
805.93638035827303
 21
1066.7596039690654
 31
0.0
  0
LINE
  8
001
  5
289
 10
392.3397453870993
 20
882.25960396906544
 30
0.0
 11
392.3397453870993
 21
868.25960396906544
 31
0.0
  0
LINE
  8
001
  5
28A
 10
391.8397453870993
 20
865.75960396906544
 30
0.0
 11
391.8397453870993
 21
869.25960396906544
 31
0.0
  0
LINE
  8
001
  5
28B
 10
377.83974538709936
 20
865.75960396906544
 30
0.0
 11
377.83984538709933
 21
868.75960396906544
 31
0.0
  0
LINE
  8
001
  5
28C
 10
384.8397453870993
 20
869.25960396906544
 30
0.0
 11
384.8397453870993
 21
865.75960396906544
 31
0.0
  0
LINE
  8
001
  5
28D
 10
391.18974538709932
 20
874.90960396906542
 30
0.0
 11
391.18974538709932
 21
871.25960396906544
 31
0.0
  0
LINE
  8
001
  5
28E
 10
378.48974538709933
 20
874.90960396906542
 30
0.0
 11
378.48974538709933
 21
871.25960396906544
 31
0.0
  0
LINE
  8
001
  5
28F
 10
379.33984538709933
 20
875.75960396906544
 30
0.0
 11
390.3397453870993
 21
875.75960396906544
 31
0.0
  0
LINE
  8
001
  5
290
 10
391.18974538709932
 20
871.25960396906544
 30
0.0
 11
378.48974538709933
 21
871.25960396906544
 31
0.0
  0
LINE
  8
001
  5
291
 10
391.18974538709932
 20
874.90960396906542
 30
0.0
 11
390.3397453870993
 21
875.75960396906544
 31
0.0
  0
LINE
  8
001
  5
292
 10
379.33984538709933
 20
875.75960396906544
 30
0.0
 11
378.48974538709933
 21
874.90960396906542
 31
0.0
  0
LINE
  8
001
  5
293
 10
378.48974538709933
 20
874.90960396906542
 30
0.0
 11
391.18974538709932
 21
874.90960396906542
 31
0.0
  0
LINE
  8
001
  5
294
 10
387.8397453870993
 20
871.25960396906544
 30
0.0
 11
387.8397453870993
 21
869.75960396906544
 31
0.0
  0
LINE
  8
001
  5
295
 10
381.83984538709933
 20
871.25960396906544
 30
0.0
 11
381.83984538709933
 21
869.75960396906544
 31
0.0
  0
LINE
  8
001
  5
296
 10
388.3397453870993
 20
869.75960396906544
 30
0.0
 11
381.33984538709933
 21
869.75960396906544
 31
0.0
  0
LINE
  8
001
  5
297
 10
399.8397453870993
 20
806.57850396906542
 30
0.0
 11
400.3773453870993
 21
807.50960396906544
 31
0.0
  0
LINE
  8
001
  5
298
 10
403.1001453870993
 20
803.81780396906549
 30
0.0
 11
400.57944538709938
 21
803.81780396906549
 31
0.0
  0
LINE
  8
001
  5
299
 10
403.8397453870993
 20
806.57850396906542
 30
0.0
 11
403.30224538709939
 21
807.50960396906544
 31
0.0
  0
LINE
  8
001
  5
29A
 10
403.1001453870993
 20
795.70130396906541
 30
0.0
 11
400.57944538709938
 21
795.70130396906541
 31
0.0
  0
LINE
  8
001
  5
29B
 10
403.8397453870993
 20
792.94070396906545
 30
0.0
 11
403.30224538709939
 21
792.00960396906544
 31
0.0
  0
LINE
  8
001
  5
29C
 10
399.8397453870993
 20
792.94060396906548
 30
0.0
 11
400.3773453870993
 21
792.00960396906544
 31
0.0
  0
LINE
  8
001
  5
29D
 10
403.8397453870993
 20
792.94070396906545
 30
0.0
 11
403.8397453870993
 21
806.57850396906542
 31
0.0
  0
LINE
  8
001
  5
29E
 10
399.8397453870993
 20
792.94060396906548
 30
0.0
 11
399.8397453870993
 21
806.57850396906542
 31
0.0
  0
LINE
  8
001
  5
29F
 10
405.3397453870993
 20
802.75960396906544
 30
0.0
 11
403.8397453870993
 21
802.75960396906544
 31
0.0
  0
LINE
  8
001
  5
2A0
 10
405.3397453870993
 20
796.75960396906544
 30
0.0
 11
403.8397453870993
 21
796.75960396906544
 31
0.0
  0
LINE
  8
001
  5
2A1
 10
408.98984538709936
 20
806.10960396906546
 30
0.0
 11
408.98984538709936
 21
793.40960396906542
 31
0.0
  0
LINE
  8
001
  5
2A2
 10
409.8397453870993
 20
805.25960396906544
 30
0.0
 11
408.98984538709936
 21
806.10960396906546
 31
0.0
  0
LINE
  8
001
  5
2A3
 10
408.98984538709936
 20
793.40960396906542
 30
0.0
 11
409.8397453870993
 21
794.25960396906544
 31
0.0
  0
LINE
  8
001
  5
2A4
 10
405.3397453870993
 20
793.40960396906542
 30
0.0
 11
405.3397453870993
 21
806.10960396906546
 31
0.0
  0
LINE
  8
001
  5
2A5
 10
409.8397453870993
 20
805.25960396906544
 30
0.0
 11
409.8397453870993
 21
794.25960396906544
 31
0.0
  0
LINE
  8
001
  5
2A6
 10
408.98984538709936
 20
806.10960396906546
 30
0.0
 11
405.3397453870993
 21
806.10960396906546
 31
0.0
  0
LINE
  8
001
  5
2A7
 10
403.30224538709939
 20
807.50960396906544
 30
0.0
 11
400.3773453870993
 21
807.50960396906544
 31
0.0
  0
LINE
  8
001
  5
2A8
 10
408.98984538709936
 20
793.40960396906542
 30
0.0
 11
405.3397453870993
 21
793.40960396906542
 31
0.0
  0
LINE
  8
001
 62
               3
  5
2A9
 10
400.3773453870993
 20
792.00960396906544
 30
0.0
 11
403.30224538709939
 21
792.00960396906544
 31
0.0
  0
LINE
  8
001
  5
2AA
 10
395.3397453870993
 20
867.75960396906544
 30
0.0
 11
395.3397453870993
 21
865.75960396906544
 31
0.0
  0
LINE
  8
001
  5
2AB
 10
392.8397453870993
 20
867.75960396906544
 30
0.0
 11
392.3397453870993
 21
868.25960396906544
 31
0.0
  0
LINE
  8
001
  5
2AC
 10
403.3397453870993
 20
868.25960396906544
 30
0.0
 11
402.8397453870993
 21
867.75960396906544
 31
0.0
  0
LINE
  8
001
  5
2AD
 10
392.3397453870993
 20
868.25960396906544
 30
0.0
 11
403.3397453870993
 21
868.25960396906544
 31
0.0
  0
LINE
  8
001
  5
2AE
 10
392.8397453870993
 20
867.75960396906544
 30
0.0
 11
402.8397453870993
 21
867.75960396906544
 31
0.0
  0
LINE
  8
001
  5
2AF
 10
392.3397453870993
 20
882.25960396906544
 30
0.0
 11
403.3397453870993
 21
882.25960396906544
 31
0.0
  0
LINE
  8
001
  5
2B0
 10
377.83974538709936
 20
865.75960396906544
 30
0.0
 11
377.83984538709933
 21
869.25960396906544
 31
0.0
  0
LINE
  8
001
  5
2B1
 10
392.8397453870993
 20
882.75960396906544
 30
0.0
 11
392.3397453870993
 21
882.25960396906544
 31
0.0
  0
LINE
  8
001
  5
2B2
 10
403.3397453870993
 20
882.25960396906544
 30
0.0
 11
402.8397453870993
 21
882.75960396906544
 31
0.0
  0
LINE
  8
001
  5
2B3
 10
392.8397453870993
 20
882.75960396906544
 30
0.0
 11
402.8397453870993
 21
882.75960396906544
 31
0.0
  0
LINE
  8
001
  5
2B4
 10
418.3397453870993
 20
882.25960396906544
 30
0.0
 11
418.3397453870993
 21
868.25960396906544
 31
0.0
  0
LINE
  8
001
  5
2B5
 10
429.3397453870993
 20
882.25960396906544
 30
0.0
 11
429.3397453870993
 21
868.25960396906544
 31
0.0
  0
LINE
  8
001
  5
2B6
 10
418.8397453870993
 20
882.75960396906544
 30
0.0
 11
428.8397453870993
 21
882.75960396906544
 31
0.0
  0
LINE
  8
001
  5
2B7
 10
429.3397453870993
 20
882.25960396906544
 30
0.0
 11
428.8397453870993
 21
882.75960396906544
 31
0.0
  0
LINE
  8
001
  5
2B8
 10
418.8397453870993
 20
882.75960396906544
 30
0.0
 11
418.3397453870993
 21
882.25960396906544
 31
0.0
  0
LINE
  8
001
  5
2B9
 10
418.3397453870993
 20
882.25960396906544
 30
0.0
 11
429.3397453870993
 21
882.25960396906544
 31
0.0
  0
LINE
  8
001
  5
2BA
 10
418.8397453870993
 20
867.75960396906544
 30
0.0
 11
428.8397453870993
 21
867.75960396906544
 31
0.0
  0
LINE
  8
001
  5
2BB
 10
418.3397453870993
 20
868.25960396906544
 30
0.0
 11
429.3397453870993
 21
868.25960396906544
 31
0.0
  0
LINE
  8
001
  5
2BC
 10
429.3397453870993
 20
868.25960396906544
 30
0.0
 11
428.8397453870993
 21
867.75960396906544
 31
0.0
  0
LINE
  8
001
  5
2BD
 10
418.8397453870993
 20
867.75960396906544
 30
0.0
 11
418.3397453870993
 21
868.25960396906544
 31
0.0
  0
LINE
  8
001
  5
2BE
 10
421.3397453870993
 20
867.75960396906544
 30
0.0
 11
421.3397453870993
 21
865.75960396906544
 31
0.0
  0
LINE
  8
001
  5
2BF
 10
426.3397453870993
 20
867.75960396906544
 30
0.0
 11
426.3397453870993
 21
865.75960396906544
 31
0.0
  0
LINE
  8
001
  5
2C0
 10
403.3397453870993
 20
882.25960396906544
 30
0.0
 11
403.3397453870993
 21
868.25960396906544
 31
0.0
  0
LINE
  8
001
  5
2C1
 10
400.3397453870993
 20
867.75960396906544
 30
0.0
 11
400.3397453870993
 21
865.75960396906544
 31
0.0
  0
LINE
  8
001
  5
2C2
 10
718.93588035827293
 20
801.75960396906544
 30
0.0
 11
718.93588035827293
 21
805.75960396906544
 31
0.0
  0
LINE
  8
001
  5
2C3
 10
728.93588035827293
 20
791.75960396906544
 30
0.0
 11
741.93578035827295
 21
791.75960396906544
 31
0.0
  0
LINE
  8
001
  5
2C4
 10
723.93588035827293
 20
865.75960396906544
 30
0.0
 11
726.93588035827293
 21
865.75960396906544
 31
0.0
  0
LINE
  8
001
  5
2C5
 10
436.8397453870993
 20
869.25960396906544
 30
0.0
 11
436.8397453870993
 21
865.75960396906544
 31
0.0
  0
LINE
  8
001
  6
DASHED
 62
               3
  5
2C6
 10
153.03994538709929
 20
951.63800396906538
 30
0.0
 11
136.33994538709931
 21
951.00540396906547
 31
0.0
  0
LINE
  8
001
  6
DASHED
 62
               3
  5
2C7
 10
153.03994538709929
 20
941.88120396906538
 30
0.0
 11
136.33994538709931
 21
942.51370396906543
 31
0.0
  0
LINE
  8
001
 62
               3
  5
2C8
 10
153.03994538709929
 20
951.63800396906538
 30
0.0
 11
153.03994538709929
 21
941.88120396906538
 31
0.0
  0
LINE
  8
001
  5
2C9
 10
429.8397453870993
 20
865.75960396906544
 30
0.0
 11
429.8397453870993
 21
868.75960396906544
 31
0.0
  0
LINE
  8
001
  6
DASHED
 62
               3
  5
2CA
 10
136.33994538709931
 20
951.00540396906547
 30
0.0
 11
136.33994538709931
 21
942.51370396906543
 31
0.0
  0
LINE
  8
001
  5
2CB
 10
443.8397453870993
 20
865.75960396906544
 30
0.0
 11
443.8397453870993
 21
869.25960396906544
 31
0.0
  0
LINE
  8
001
 62
               3
  5
2CC
 10
738.43608035827287
 20
1081.7596039690654
 30
0.0
 11
803.43638035827291
 21
1081.7596039690654
 31
0.0
  0
LINE
  8
001
  5
2CD
 10
457.8397453870993
 20
811.80130396906543
 30
0.0
 11
457.8397453870993
 21
821.71790396906545
 31
0.0
  0
LINE
  8
001
  6
CENTER
  5
2CE
 10
462.12974538709938
 20
1061.7596039690654
 30
0.0
 11
478.1509453870994
 21
1061.7596039690654
 31
0.0
  0
LINE
  8
001
  5
2CF
 10
725.43588035827293
 20
882.25960396906544
 30
0.0
 11
726.93588035827293
 21
882.25960396906544
 31
0.0
  0
LINE
  8
001
  5
2D0
 10
725.93588035827293
 20
882.75960396906544
 30
0.0
 11
725.43588035827293
 21
882.25960396906544
 31
0.0
  0
LINE
  8
001
  5
2D1
 10
725.93588035827293
 20
882.75960396906544
 30
0.0
 11
726.93588035827293
 21
882.75960396906544
 31
0.0
  0
LINE
  8
001
  5
2D2
 10
725.43588035827293
 20
882.25960396906544
 30
0.0
 11
725.43588035827293
 21
875.75960396906544
 31
0.0
  0
LINE
  8
001
 62
               3
  5
2D3
 10
726.93588035827293
 20
875.81710396906544
 30
0.0
 11
726.90268035827296
 21
875.75960396906544
 31
0.0
  0
LINE
  8
001
  5
2D4
 10
458.38154538709938
 20
811.25960396906544
 30
0.0
 11
458.38154538709938
 21
822.25960396906544
 31
0.0
  0
LINE
  8
001
  5
2D5
 10
458.38154538709938
 20
811.25960396906544
 30
0.0
 11
457.8397453870993
 21
811.80130396906543
 31
0.0
  0
LINE
  8
001
  5
2D6
 10
458.38154538709938
 20
822.25960396906544
 30
0.0
 11
457.8397453870993
 21
821.71790396906545
 31
0.0
  0
LINE
  8
001
  5
2D7
 10
454.8397453870993
 20
812.47660396906542
 30
0.0
 11
457.8397453870993
 21
812.38230396906545
 31
0.0
  0
LINE
  8
001
  5
2D8
 10
454.8397453870993
 20
811.89560396906541
 30
0.0
 11
457.8397453870993
 21
811.80130396906543
 31
0.0
  0
LINE
  8
001
  5
2D9
 10
454.8397453870993
 20
821.04260396906545
 30
0.0
 11
457.8397453870993
 21
821.13690396906543
 31
0.0
  0
LINE
  8
001
  5
2DA
 10
454.8397453870993
 20
821.62360396906547
 30
0.0
 11
457.8397453870993
 21
821.71790396906545
 31
0.0
  0
LINE
  8
001
  5
2DB
 10
724.11698035827294
 20
869.75960396906544
 30
0.0
 11
723.18588035827293
 21
869.22200396906544
 31
0.0
  0
LINE
  8
001
 62
               3
  5
2DC
 10
468.83964538709932
 20
1042.7596039690654
 30
0.0
 11
466.8397453870993
 21
1066.7596039690654
 31
0.0
  0
LINE
  8
001
 62
               3
  5
2DD
 10
549.83974538709936
 20
1042.7596039690654
 30
0.0
 11
551.83974538709936
 21
1066.7596039690654
 31
0.0
  0
LINE
  8
001
 62
               3
  5
2DE
 10
546.83964538709938
 20
1039.7596039690654
 30
0.0
 11
549.83974538709936
 21
1042.7596039690654
 31
0.0
  0
LINE
  8
001
  5
2DF
 10
724.11698035827294
 20
865.75960396906544
 30
0.0
 11
723.18588035827293
 21
866.29720396906544
 31
0.0
  0
LINE
  8
001
 62
               3
  5
2E0
 10
471.83964538709932
 20
1039.7596039690654
 30
0.0
 11
468.83964538709932
 21
1042.7596039690654
 31
0.0
  0
LINE
  8
001
 62
               3
  5
2E1
 10
549.33974538709936
 20
1081.7596039690654
 30
0.0
 11
551.83974538709936
 21
1079.2596039690654
 31
0.0
  0
LINE
  8
001
  5
2E2
 10
726.93588035827293
 20
869.75960396906544
 30
0.0
 11
724.11698035827294
 21
869.75960396906544
 31
0.0
  0
LINE
  8
001
  5
2E3
 10
726.93588035827293
 20
865.75960396906544
 30
0.0
 11
724.11698035827294
 21
865.75960396906544
 31
0.0
  0
LINE
  8
001
 62
               3
  5
2E4
 10
469.3397453870993
 20
1081.7596039690654
 30
0.0
 11
466.8397453870993
 21
1079.2596039690654
 31
0.0
  0
LINE
  8
001
  5
2E5
 10
724.58598035827299
 20
874.90960396906542
 30
0.0
 11
726.93588035827293
 21
874.90960396906542
 31
0.0
  0
LINE
  8
001
  5
2E6
 10
725.43588035827293
 20
875.75960396906544
 30
0.0
 11
724.58598035827299
 21
874.90960396906542
 31
0.0
  0
LINE
  8
001
  5
2E7
 10
726.93588035827293
 20
871.25960396906544
 30
0.0
 11
724.58598035827299
 21
871.25960396906544
 31
0.0
  0
LINE
  8
001
  5
2E8
 10
725.43588035827293
 20
875.75960396906544
 30
0.0
 11
726.93588035827293
 21
875.75960396906544
 31
0.0
  0
LINE
  8
001
  5
2E9
 10
724.58598035827299
 20
874.90960396906542
 30
0.0
 11
724.58598035827299
 21
871.25960396906544
 31
0.0
  0
LINE
  8
001
  5
2EA
 10
723.18588035827293
 20
869.22200396906544
 30
0.0
 11
723.18588035827293
 21
866.29720396906544
 31
0.0
  0
LINE
  8
001
 62
               3
  5
2EB
 10
466.8397453870993
 20
1076.7596039690654
 30
0.0
 11
551.83974538709936
 21
1076.7596039690654
 31
0.0
  0
LINE
  8
001
  5
2EC
 10
725.43608035827287
 20
871.25960396906544
 30
0.0
 11
725.43608035827287
 21
869.75960396906544
 31
0.0
  0
LINE
  8
001
 62
               3
  5
2ED
 10
486.8397453870993
 20
796.75960396906544
 30
0.0
 11
486.8397453870993
 21
782.25960396906544
 31
0.0
  0
LINE
  8
001
 62
               3
  5
2EE
 10
551.83974538709936
 20
1079.2596039690654
 30
0.0
 11
551.83974538709936
 21
1066.7596039690654
 31
0.0
  0
LINE
  8
001
 62
               3
  5
2EF
 10
466.8397453870993
 20
1079.2596039690654
 30
0.0
 11
466.8397453870993
 21
1066.7596039690654
 31
0.0
  0
LINE
  8
001
 62
               3
  5
2F0
 10
469.3397453870993
 20
1081.7596039690654
 30
0.0
 11
549.33974538709936
 21
1081.7596039690654
 31
0.0
  0
LINE
  8
001
 62
               3
  5
2F1
 10
568.83974538709936
 20
1039.7596039690654
 30
0.0
 11
568.83974538709936
 21
933.75970396906541
 31
0.0
  0
LINE
  8
001
 62
               3
  5
2F2
 10
827.26638035827295
 20
970.32580396906542
 30
0.0
 11
826.18638035827303
 21
968.45550396906538
 31
0.0
  0
LINE
  8
001
 62
               3
  5
2F3
 10
736.58378035827286
 20
1041.2596039690654
 30
0.0
 11
714.60588035827288
 21
1003.1929039690655
 31
0.0
  0
LINE
  8
001
 62
               3
  5
2F4
 10
714.605880358273
 20
970.32620396906543
 30
0.0
 11
715.68588035827293
 21
968.45530396906543
 31
0.0
  0
LINE
  8
001
 62
               3
  5
2F5
 10
805.28838035827289
 20
1041.2595039690655
 30
0.0
 11
827.26638035827284
 21
1003.1929039690655
 31
0.0
  0
LINE
  8
001
 62
               3
  5
2F6
 10
713.93588035827293
 20
972.82620396906543
 30
0.0
 11
713.93588035827293
 21
1000.6929039690655
 31
0.0
  0
LINE
  8
001
 62
               3
  5
2F7
 10
827.93538035827305
 20
1000.6929039690655
 30
0.0
 11
827.93538035827305
 21
972.82580396906542
 31
0.0
  0
LINE
  8
001
 62
               4
  5
2F8
 10
522.83974538709936
 20
809.75960396906544
 30
0.0
 11
522.83974538709936
 21
912.75960396906544
 31
0.0
  0
LINE
  8
001
 62
               4
  5
2F9
 10
542.83974538709936
 20
759.75960396906544
 30
0.0
 11
371.83984538709939
 21
759.75960396906544
 31
0.0
  0
LINE
  8
001
 62
               3
  5
2FA
 10
615.83974538709936
 20
1242.6448998231822
 30
0.0
 11
623.76194538709944
 21
1232.0209998231821
 31
0.0
  0
LINE
  8
001
  6
PHANTOM
 62
               3
  5
2FB
 10
159.57194538709933
 20
1021.7594039691362
 30
0.0
 11
164.83984538709933
 21
1021.7594039691362
 31
0.0
  0
LINE
  8
001
  6
PHANTOM
 62
               3
  5
2FC
 10
157.83984538709933
 20
1022.7594039691362
 30
0.0
 11
159.57194538709933
 21
1021.7594039691362
 31
0.0
  0
LINE
  8
001
  6
PHANTOM
 62
               3
  5
2FD
 10
153.04004538709933
 20
1042.0096039691362
 30
0.0
 11
154.83984538709933
 21
1042.0096039691362
 31
0.0
  0
LINE
  8
001
  6
PHANTOM
 62
               3
  5
2FE
 10
153.04004538709933
 20
1051.5096039691362
 30
0.0
 11
154.84004538709934
 21
1051.5096039691362
 31
0.0
  0
LINE
  8
001
  6
PHANTOM
 62
               3
  5
2FF
 10
157.83984538709933
 20
1070.7593039691362
 30
0.0
 11
157.83984538709933
 21
1022.7594039691362
 31
0.0
  0
LINE
  8
001
  6
PHANTOM
 62
               3
  5
300
 10
159.57194538709933
 20
921.75940396906537
 30
0.0
 11
164.83984538709933
 21
921.75940396906537
 31
0.0
  0
LINE
  8
001
  6
PHANTOM
 62
               3
  5
301
 10
157.83984538709933
 20
922.75940396906537
 30
0.0
 11
159.57194538709933
 21
921.75940396906537
 31
0.0
  0
LINE
  8
001
  6
PHANTOM
 62
               3
  5
302
 10
159.57194538709933
 20
971.75940396906537
 30
0.0
 11
164.83984538709933
 21
971.75940396906537
 31
0.0
  0
LINE
  8
001
  6
PHANTOM
 62
               3
  5
303
 10
157.83984538709933
 20
970.75940396906537
 30
0.0
 11
159.57194538709933
 21
971.75940396906537
 31
0.0
  0
LINE
  8
001
  6
PHANTOM
 62
               3
  5
304
 10
157.83984538709933
 20
970.75940396906537
 30
0.0
 11
157.83984538709933
 21
922.75940396906537
 31
0.0
  0
LINE
  8
001
  6
PHANTOM
 62
               3
  5
305
 10
153.04004538709933
 20
942.00960396906544
 30
0.0
 11
154.83984538709933
 21
942.00960396906544
 31
0.0
  0
LINE
  8
001
  6
PHANTOM
 62
               3
  5
306
 10
153.04004538709933
 20
951.50960396906544
 30
0.0
 11
154.84004538709934
 21
951.50960396906544
 31
0.0
  0
LINE
  8
001
  6
PHANTOM
 62
               3
  5
307
 10
159.57194538709933
 20
1071.7593039691362
 30
0.0
 11
164.83984538709933
 21
1071.7593039691362
 31
0.0
  0
LINE
  8
001
  6
PHANTOM
 62
               3
  5
308
 10
157.83984538709933
 20
1070.7593039691362
 30
0.0
 11
159.57194538709933
 21
1071.7593039691362
 31
0.0
  0
LINE
  8
001
 62
               4
  5
309
 10
542.83974538709936
 20
792.75960396906544
 30
0.0
 11
542.83974538709936
 21
809.75960396906544
 31
0.0
  0
LINE
  8
001
 62
               4
  5
30A
 10
542.83974538709936
 20
757.75960396906544
 30
0.0
 11
542.83974538709936
 21
768.75960396906544
 31
0.0
  0
LINE
  8
001
 62
               3
  5
30B
 10
384.25264538709934
 20
605.75960396906544
 30
0.0
 11
384.25264538709934
 21
593.75960396906544
 31
0.0
  0
LINE
  8
001
 62
               3
  5
30C
 10
382.13034538709934
 20
593.75970396906541
 30
0.0
 11
384.25264538709934
 21
593.75960396906544
 31
0.0
  0
LINE
  8
001
 62
               3
  5
30D
 10
370.43344538709937
 20
611.75970396906541
 30
0.0
 11
399.12844538709936
 21
611.75960396906544
 31
0.0
  0
LINE
  8
001
 62
               3
  5
30E
 10
401.88334538709938
 20
607.68980396906545
 30
0.0
 11
402.03424538709936
 21
612.00960396906544
 31
0.0
  0
LINE
  8
001
 62
               3
  5
30F
 10
381.93744538709933
 20
582.7072039690654
 30
0.0
 11
382.30554538709936
 21
603.79450396906543
 31
0.0
  0
LINE
  8
001
 62
               3
  5
310
 10
384.30524538709932
 20
605.75960396906544
 30
0.0
 11
399.88454538709931
 21
605.75960396906544
 31
0.0
  0
LINE
  8
001
 62
               3
  5
311
 10
374.44804538709934
 20
579.75960396906544
 30
0.0
 11
378.93794538709932
 21
579.75960396906544
 31
0.0
  0
LINE
  8
001
 62
               3
  5
312
 10
371.44984538709934
 20
582.65490396906546
 30
0.0
 11
369.87354538709934
 21
627.79450396906543
 31
0.0
  0
LINE
  8
001
 62
               3
  5
313
 10
373.83984538709933
 20
699.75960396906544
 30
0.0
 11
438.63542958423596
 21
699.75960396906544
 31
0.0
  0
LINE
  8
001
 62
               3
  5
314
 10
368.87414538709936
 20
628.75960396906544
 30
0.0
 11
368.83984538709933
 21
628.75960396906544
 31
0.0
  0
LINE
  8
001
 62
               3
  5
315
 10
369.83984538709933
 20
703.75960396906544
 30
0.0
 11
368.83984538709933
 21
703.75960396906544
 31
0.0
  0
LINE
  8
001
 62
               3
  5
316
 10
368.83984538709933
 20
703.75960396906544
 30
0.0
 11
368.83984538709933
 21
628.75960396906544
 31
0.0
  0
LINE
  8
001
 62
               3
  5
317
 10
368.83984538709933
 20
703.75960396906544
 30
0.0
 11
368.83984538709933
 21
629.75940396906549
 31
0.0
  0
LINE
  8
001
 62
               4
  5
318
 10
371.83984538709933
 20
732.75960396906544
 30
0.0
 11
371.83984538709933
 21
577.75960396906544
 31
0.0
  0
LINE
  8
001
 62
               2
  5
319
 10
371.83984538709933
 20
678.75960396906544
 30
0.0
 11
371.83984538709933
 21
634.75960396906544
 31
0.0
  0
LINE
  8
001
 62
               2
  5
31A
 10
397.16134538709929
 20
629.75960396906544
 30
0.0
 11
416.83984538709939
 21
629.75960396906544
 31
0.0
  0
LINE
  8
001
 62
               2
  5
31B
 10
421.83984538709939
 20
678.75960396906544
 30
0.0
 11
421.83984538709939
 21
634.75960396906544
 31
0.0
  0
LINE
  8
001
 62
               2
  5
31C
 10
376.83984538709933
 20
629.75960396906544
 30
0.0
 11
392.51804538709933
 21
629.75960396906544
 31
0.0
  0
LINE
  8
001
 62
               2
  5
31D
 10
376.83984538709933
 20
683.75960396906544
 30
0.0
 11
416.83984538709939
 21
683.75960396906544
 31
0.0
  0
LINE
  8
001
 62
               3
  5
31E
 10
402.03424538709936
 20
612.00960396906544
 30
0.0
 11
402.14864538709929
 21
615.2833039690654
 31
0.0
  0
LINE
  8
001
  6
CENTER
  5
31F
 10
346.92097214491179
 20
666.75960396906544
 30
0.0
 11
439.92347341444309
 21
666.75960396906544
 31
0.0
  0
LINE
  8
001
 62
               3
  5
320
 10
417.13944538709933
 20
629.75960396906544
 30
0.0
 11
432.51122313742138
 21
629.75960396906544
 31
0.0
  0
LINE
  8
001
 62
               4
  5
321
 10
379.83984538709933
 20
720.75960396906544
 30
0.0
 11
440.47269151828033
 21
720.75960396906544
 31
0.0
  0
LINE
  8
001
 62
               4
  5
322
 10
441.52255548059151
 20
732.75960396906544
 30
0.0
 11
371.83984538709933
 21
732.75960396906544
 31
0.0
  0
LINE
  8
001
 62
               4
  5
323
 10
427.96181263407328
 20
577.75960396906544
 30
0.0
 11
371.83984538709933
 21
577.75960396906544
 31
0.0
  0
LINE
  8
001
 62
               4
  5
324
 10
428.1367899611252
 20
579.75960396906544
 30
0.0
 11
371.83984538709933
 21
579.75960396906544
 31
0.0
  0
LINE
  8
001
  6
CENTER
  5
325
 10
368.83984538709933
 20
846.75960396906544
 30
0.0
 11
61.614789283583718
 21
846.75960396906544
 31
0.0
  0
LINE
  8
001
  6
CENTER
  5
326
 10
166.47826208631801
 20
946.75960396906544
 30
0.0
 11
99.844274659560199
 21
946.75960396906544
 31
0.0
  0
LINE
  8
001
  6
CENTER
  5
327
 10
166.00056905176621
 20
1046.7596110334084
 30
0.0
 11
101.02057470838832
 21
1046.759564948306
 31
0.0
  0
LINE
  8
001
 62
               3
  5
328
 10
190.43859183686271
 20
883.75960396906544
 30
0.0
 11
368.83984538709933
 21
883.75960396906544
 31
0.0
  0
LINE
  8
001
 62
               3
  5
329
 10
190.43747218709944
 20
809.75960396906544
 30
0.0
 11
368.83984538709933
 21
809.75960396906544
 31
0.0
  0
LINE
  8
001
 62
               3
  5
32A
 10
159.57219178709937
 20
871.75960396906544
 30
0.0
 11
184.83984538709933
 21
871.75960396906544
 31
0.0
  0
LINE
  8
001
 62
               3
  5
32B
 10
159.57167218709941
 20
821.75960396906544
 30
0.0
 11
184.83984538709933
 21
821.75960396906544
 31
0.0
  0
LINE
  8
001
 62
               3
  5
32C
 10
159.57236498709923
 20
1227.2343998231822
 30
0.0
 11
184.83984538709933
 21
1227.2343998231822
 31
0.0
  0
LINE
  8
001
 62
               3
  5
32D
 10
159.57149898709943
 20
1177.2343998231822
 30
0.0
 11
184.83984538709933
 21
1177.2343998231822
 31
0.0
  0
LINE
  8
001
  5
32E
 10
377.83974538709936
 20
865.75960396906544
 30
0.0
 11
391.8397453870993
 21
865.75960396906544
 31
0.0
  0
LINE
  8
001
 62
               3
  5
32F
 10
353.7727377539648
 20
703.75960396906544
 30
0.0
 11
368.83984538709933
 21
703.75960396906544
 31
0.0
  0
LINE
  8
001
 62
               3
  5
330
 10
347.2985766530461
 20
629.75960396906544
 30
0.0
 11
368.83984538709933
 21
629.75960396906544
 31
0.0
  0
LINE
  8
001
  6
PHANTOM
  5
331
 10
656.83974538709936
 20
793.35960396906546
 30
0.0
 11
656.83974538709936
 21
768.15960396906542
 31
0.0
  0
LINE
  8
001
  6
PHANTOM
  5
332
 10
655.33974538709936
 20
766.65960396906542
 30
0.0
 11
647.33974538709936
 21
766.65960396906542
 31
0.0
  0
LINE
  8
001
  6
PHANTOM
  5
333
 10
655.33974538709936
 20
794.85960396906546
 30
0.0
 11
647.33974538709936
 21
794.85960396906546
 31
0.0
  0
LINE
  8
001
  6
PHANTOM
  5
334
 10
647.33974538709936
 20
794.85960396906546
 30
0.0
 11
647.33974538709936
 21
794.34028856564248
 31
0.0
  0
LINE
  8
001
  6
PHANTOM
  5
335
 10
637.83974538709936
 20
793.75960396906544
 30
0.0
 11
647.33974538709936
 21
794.34028856564248
 31
0.0
  0
LINE
  8
001
  6
PHANTOM
  5
336
 10
637.83974538709936
 20
767.75960396906544
 30
0.0
 11
647.33974538709936
 21
767.17891937248839
 31
0.0
  0
LINE
  8
001
  6
PHANTOM
  5
337
 10
647.33974538709936
 20
767.17891937248851
 30
0.0
 11
647.33974538709936
 21
766.65960396906553
 31
0.0
  0
LINE
  8
001
  6
PHANTOM
  5
338
 10
656.83974538709936
 20
1229.8343248708954
 30
0.0
 11
656.83974538709936
 21
1204.6343248708954
 31
0.0
  0
LINE
  8
001
  6
PHANTOM
  5
339
 10
655.33974538709936
 20
1203.1343248708954
 30
0.0
 11
647.33974538709936
 21
1203.1343248708954
 31
0.0
  0
LINE
  8
001
  6
PHANTOM
  5
33A
 10
655.33974538709936
 20
1231.3343248708954
 30
0.0
 11
647.33974538709936
 21
1231.3343248708954
 31
0.0
  0
LINE
  8
001
  6
PHANTOM
  5
33B
 10
647.33974538709936
 20
1231.3343248708954
 30
0.0
 11
647.33974538709936
 21
1230.8150094674725
 31
0.0
  0
LINE
  8
001
  6
PHANTOM
  5
33C
 10
637.83974538709936
 20
1230.2343248708953
 30
0.0
 11
647.33974538709936
 21
1230.8150094674725
 31
0.0
  0
LINE
  8
001
  6
PHANTOM
  5
33D
 10
637.83974538709936
 20
1204.2343248708953
 30
0.0
 11
647.33974538709936
 21
1203.6536402743184
 31
0.0
  0
LINE
  8
001
  6
PHANTOM
  5
33E
 10
647.33974538709936
 20
1203.6536402743184
 30
0.0
 11
647.33974538709936
 21
1203.1343248708954
 31
0.0
  0
LINE
  8
001
 62
               3
  5
33F
 10
389.33941682873217
 20
1141.2343998231822
 30
0.0
 11
373.33941682873217
 21
1141.2343998231822
 31
0.0
  0
LINE
  8
001
 62
               3
  5
340
 10
389.33941682873217
 20
1141.2343998231822
 30
0.0
 11
389.67275016206548
 21
1145.2343998231822
 31
0.0
  0
LINE
  8
001
 62
               3
  5
341
 10
373.33941682873217
 20
1141.2343998231822
 30
0.0
 11
373.00608349539885
 21
1145.2343998231822
 31
0.0
  0
LINE
  8
001
 62
               3
  5
342
 10
816.93638035827303
 20
834.76133701795447
 30
0.0
 11
816.93638035827303
 21
818.76133701795447
 31
0.0
  0
LINE
  8
001
 62
               3
  5
343
 10
816.93638035827303
 20
834.76133701795447
 30
0.0
 11
814.93638035827303
 21
834.92800368462122
 31
0.0
  0
LINE
  8
001
 62
               3
  5
344
 10
816.93638035827303
 20
818.76133701795447
 30
0.0
 11
814.93638035827303
 21
818.59467035128773
 31
0.0
  0
LINE
  8
001
 62
               3
  5
345
 10
814.93638035827303
 20
858.05435396906546
 30
0.0
 11
814.93638035827303
 21
900.34910396906548
 31
0.0
  0
LINE
  8
001
 62
               3
  5
346
 10
724.93588035827293
 20
816.75970396906541
 30
0.0
 11
724.93588035827293
 21
832.75970396906541
 31
0.0
  0
LINE
  8
001
 62
               3
  5
347
 10
724.93588035827293
 20
816.75970396906541
 30
0.0
 11
726.93588035827293
 21
816.59303730239867
 31
0.0
  0
LINE
  8
001
 62
               3
  5
348
 10
724.93588035827293
 20
832.75970396906541
 30
0.0
 11
726.93588035827293
 21
832.92637063573216
 31
0.0
  0
LINE
  8
001
 62
               3
  5
349
 10
716.93588035827293
 20
807.25960396906544
 30
0.0
 11
716.93588035827293
 21
813.02758316149652
 31
0.0
  0
LINE
  8
001
 62
               3
  5
34A
 10
715.93588035827293
 20
804.75960396906544
 30
0.0
 11
715.93588035827293
 21
813.60493343068617
 31
0.0
  0
LINE
  8
001
 62
               3
  5
34B
 10
709.93588035827293
 20
805.25960396906544
 30
0.0
 11
709.93588035827293
 21
818.39220412232294
 31
0.0
  0
LINE
  8
001
 62
               3
  5
34C
 10
715.93588035827293
 20
807.25960396906544
 30
0.0
 11
716.93588035827293
 21
807.25960396906544
 31
0.0
  0
LINE
  8
001
 62
               3
  5
34D
 10
709.93588035827293
 20
805.25960396906544
 30
0.0
 11
715.93588035827293
 21
804.75960396906544
 31
0.0
  0
LINE
  8
001
  5
34E
 10
723.93588035827293
 20
809.75963396906548
 30
0.0
 11
728.40330602942151
 21
809.75962652331464
 31
0.0
  0
LINE
  8
001
  5
34F
 10
425.6683125118455
 20
1140.2343998231822
 30
0.0
 11
452.83988538709929
 21
1140.2343998231822
 31
0.0
  0
LINE
  8
001
  5
350
 10
424.25409894947239
 20
1140.8201862608091
 30
0.0
 11
419.83988538709929
 21
1145.2343998231822
 31
0.0
  0
LINE
  8
001
  5
351
 10
708.93588035827293
 20
822.2651874685306
 30
0.0
 11
708.93588035827293
 21
839.36729912365217
 31
0.0
  0
LINE
  8
001
  5
352
 10
717.93588035827293
 20
849.18225369987579
 30
0.0
 11
712.93588035827293
 21
846.29550235392765
 31
0.0
  0
LINE
  8
001
  5
353
 10
721.43588035827293
 20
810.42950695014326
 30
0.0
 11
712.93588035827293
 21
815.33698423825513
 31
0.0
  0
LINE
  8
001
  5
354
 10
426.8397453870993
 20
843.98607127716912
 30
0.0
 11
454.8397453870993
 21
843.98607127716912
 31
0.0
  0
LINE
  8
001
  5
355
 10
416.8397453870993
 20
849.7595739690654
 30
0.0
 11
454.8397453870993
 21
849.7595739690654
 31
0.0
  0
LINE
  8
001
  5
356
 10
426.8397453870993
 20
817.64635531501358
 30
0.0
 11
454.8397453870993
 21
817.64635531501358
 31
0.0
  0
LINE
  8
001
  5
357
 10
424.8397453870993
 20
819.64635531501358
 30
0.0
 11
424.8397453870993
 21
841.98607127716912
 31
0.0
  0
LINE
  8
001
  5
358
 10
414.8397453870993
 20
811.75960396906544
 30
0.0
 11
414.8397453870993
 21
847.7595739690654
 31
0.0
  0
LINE
  8
001
  5
359
 10
454.8397453870993
 20
1142.21073591818
 30
0.0
 11
454.8397453870993
 21
1148.2343998231822
 31
0.0
  0
LINE
  8
001
  5
35A
 10
718.93588035827293
 20
850.91430450744474
 30
0.0
 11
718.93588035827293
 21
860.75960396906544
 31
0.0
  0
LINE
  8
001
  5
35B
 10
350.36134571801011
 20
664.76721457288193
 30
0.0
 11
346.73065223324858
 21
666.08867893107936
 31
0.0
  0
LINE
  8
001
  5
35C
 10
354.34066217376227
 20
667.43052900705152
 30
0.0
 11
346.73065223324858
 21
666.08867893107936
 31
0.0
  0
LINE
  8
001
  5
35D
 10
350.70996868900085
 20
668.75199336524895
 30
0.0
 11
354.34066217376227
 21
667.43052900705152
 31
0.0
  0
LINE
  8
001
  5
35E
 10
346.62965367989756
 20
622.11377939945874
 30
0.0
 11
350.36134571801011
 21
664.76721457288193
 31
0.0
  0
LINE
  8
001
  5
35F
 10
350.70996868900085
 20
668.75199336524895
 30
0.0
 11
354.55562557005209
 21
712.70805265413787
 31
0.0
  0
LINE
  8
001
  5
360
 10
439.12237601405053
 20
705.32542713048872
 30
0.0
 11
435.49168252928911
 21
706.64689148868615
 31
0.0
  0
LINE
  8
001
  5
361
 10
443.10169246980269
 20
707.98874156465831
 30
0.0
 11
435.49168252928911
 21
706.64689148868615
 31
0.0
  0
LINE
  8
001
  5
362
 10
439.47099898504115
 20
709.31020592285563
 30
0.0
 11
443.10169246980269
 21
707.98874156465831
 31
0.0
  0
LINE
  8
001
  5
363
 10
431.27835916676139
 20
615.66790430223159
 30
0.0
 11
427.64766568199985
 21
616.98936866042902
 31
0.0
  0
LINE
  8
001
  5
364
 10
435.25767562251355
 20
618.33121873640118
 30
0.0
 11
427.64766568199985
 21
616.98936866042902
 31
0.0
  0
LINE
  8
001
  5
365
 10
431.62698213775201
 20
619.65268309459861
 30
0.0
 11
435.25767562251355
 21
618.33121873640118
 31
0.0
  0
LINE
  8
001
  5
366
 10
427.20289750207991
 20
569.08516431702446
 30
0.0
 11
431.27835916676139
 21
615.66790430223159
 31
0.0
  0
LINE
  8
001
  5
367
 10
431.62698213775201
 20
619.65268309459861
 30
0.0
 11
439.12237601405053
 21
705.32542713048872
 31
0.0
  0
LINE
  8
001
  5
368
 10
439.47099898504115
 20
709.31020592285563
 30
0.0
 11
442.37727046231583
 21
742.52904091412972
 31
0.0
  0
ARC
  8
001
 62
               3
  5
369
 10
369.83984538709933
 20
881.75960396906544
 30
0.0
 40
2.000000000000008
 50
0.0
 51
89.999130000000349
  0
ARC
  8
001
 62
               3
  5
36A
 10
373.83984538709933
 20
881.75960396906544
 30
0.0
 40
2.0
 50
180.0
 51
270.0
  0
ARC
  8
001
 62
               3
  5
36B
 10
506.8397453870993
 20
881.75960396906544
 30
0.0
 40
2.0
 50
270.0
 51
0.0
  0
ARC
  8
001
 62
               3
  5
36C
 10
510.8397453870993
 20
881.75960396906544
 30
0.0
 40
2.0
 50
90.0
 51
180.0
  0
ARC
  8
001
 62
               3
  5
36D
 10
368.87414538709936
 20
807.75960396906544
 30
0.0
 40
1.0
 50
2.0002879999996002
 51
90.0
  0
ARC
  8
001
 62
               3
  5
36E
 10
374.44804538709934
 20
762.75950396906546
 30
0.0
 40
3.0
 50
181.99999999999994
 51
270.0
  0
ARC
  8
001
 62
               3
  5
36F
 10
378.93794538709932
 20
762.75960396906544
 30
0.0
 40
3.0000000000000209
 50
270.0
 51
358.99979400000007
  0
ARC
  8
001
 62
               3
  5
370
 10
399.88454538709931
 20
787.75960396906544
 30
0.0
 40
1.9999999999999751
 50
270.00042999999931
 51
358.00036600000072
  0
ARC
  8
001
 62
               3
  5
371
 10
417.13944538709933
 20
794.75960396906544
 30
0.0
 40
15.000000000000009
 50
90.000059999999962
 51
130.8283999999999
  0
ARC
  8
001
 62
               3
  5
372
 10
399.12844538709936
 20
794.75960396906544
 30
0.0
 40
3.0000000000000102
 50
270.00028999999989
 51
294.38602999999978
  0
ARC
  8
001
 62
               3
  5
373
 10
384.30524538709932
 20
783.75960396906544
 30
0.0
 40
2.0000000000000262
 50
90.0
 51
179.00000000000011
  0
ARC
  8
001
  5
374
 10
506.67414538709937
 20
799.75960396906544
 30
0.0
 40
8.1657100000000398
 50
339.34131000000019
 51
20.658689999999794
  0
ARC
  8
001
 62
               3
  5
375
 10
800.687380358273
 20
762.75950396906546
 30
0.0
 40
2.9999999999999787
 50
270.0
 51
355.0000079999997
  0
ARC
  8
001
 62
               3
  5
376
 10
758.23778035827286
 20
762.75960396906544
 30
0.0
 40
3.000000000000008
 50
195.0000999999998
 51
269.99940999999922
  0
ARC
  8
001
 62
               3
  5
377
 10
745.05958035827302
 20
788.75960396906544
 30
0.0
 40
3.0
 50
15.000090000000018
 51
90.0
  0
ARC
  8
001
 62
               3
  5
378
 10
741.06088035827293
 20
794.75960396906544
 30
0.0
 40
3.000000000000008
 50
199.47122063448953
 51
269.99940999999922
  0
ARC
  8
001
  5
379
 10
483.00554538709929
 20
799.75960396906544
 30
0.0
 40
8.1657099999999918
 50
159.34129999999996
 51
200.65870000000004
  0
ARC
  8
001
  5
37A
 10
477.6269453870994
 20
795.25050396906545
 30
0.0
 40
2.7870309999999834
 50
144.25329999999994
 51
180.11189999999874
  0
ARC
  8
001
  5
37B
 10
477.6269453870994
 20
804.26860396906545
 30
0.0
 40
2.7870309999999887
 50
179.88810000000126
 51
215.74670000000006
  0
ARC
  8
001
  5
37C
 10
512.0528453870993
 20
804.26860396906545
 30
0.0
 40
2.7870310000000487
 50
324.25329999999991
 51
0.1118773999971521
  0
ARC
  8
001
  5
37D
 10
512.0528453870993
 20
795.25050396906545
 30
0.0
 40
2.7870309999999887
 50
359.88812260000287
 51
35.746700000000097
  0
ARC
  8
001
 62
               3
  5
37E
 10
634.3024453870994
 20
793.35960396906546
 30
0.0
 40
1.5
 50
0.0
 51
90.0
  0
ARC
  8
001
 62
               3
  5
37F
 10
634.3024453870994
 20
768.15960396906542
 30
0.0
 40
1.5
 50
270.0
 51
0.0
  0
ARC
  8
001
 62
               3
  5
380
 10
496.8397453870993
 20
774.49580396906549
 30
0.0
 40
8.7362399999999756
 50
250.70490000000026
 51
289.29509999999971
  0
CIRCLE
  8
001
 62
               3
  5
381
 10
785.93588035827293
 20
780.75960396906544
 30
0.0
 40
14.100000000000023
  0
ARC
  8
001
 62
               3
  5
382
 10
785.93588035827293
 20
780.75960396906544
 30
0.0
 40
15.999999999999977
 50
223.4325
 51
46.186750000000004
  0
ARC
  8
001
 62
               3
  5
383
 10
760.93588035827293
 20
770.75950396906546
 30
0.0
 40
1.0
 50
180.00129999983798
 51
270.0
  0
ARC
  8
001
 62
               3
  5
384
 10
803.93638035827303
 20
799.52120396906548
 30
0.0
 40
10.000000000000025
 50
180.0
 51
226.18680000000001
  0
ARC
  8
001
 62
               3
  5
385
 10
754.93588035827293
 20
788.75960396906544
 30
0.0
 40
5.0
 50
0.0
 51
90.0
  0
ARC
  8
001
 62
               3
  5
386
 10
728.93588035827293
 20
799.75960396906544
 30
0.0
 40
6.0
 50
90.0
 51
270.0
  0
ARC
  8
001
 62
               3
  5
387
 10
764.93578035827295
 20
772.37310396906548
 30
0.0
 40
6.6135230000000069
 50
247.78939999999992
 51
292.21060000000006
  0
CIRCLE
  8
001
  5
388
 10
728.93588035827293
 20
799.75960396906544
 30
0.0
 40
3.0
  0
CIRCLE
  8
001
  5
389
 10
728.93588035827293
 20
799.75960396906544
 30
0.0
 40
2.5
  0
ARC
  8
001
 62
               4
  5
38A
 10
818.93638035827303
 20
898.05800396906545
 30
0.0
 40
4.000000000000024
 50
0.0
 51
59.999959999999483
  0
ARC
  8
001
 62
               4
  5
38B
 10
818.93638035827303
 20
898.05800396906545
 30
0.0
 40
2.0000000000000235
 50
0.0
 51
59.999849999999213
  0
ARC
  8
001
 62
               4
  5
38C
 10
818.93638035827303
 20
855.58790396906545
 30
0.0
 40
4.0
 50
315.0
 51
0.0
  0
ARC
  8
001
 62
               4
  5
38D
 10
818.93638035827303
 20
855.58790396906545
 30
0.0
 40
2.0
 50
314.99968999999857
 51
0.0
  0
ARC
  8
001
 62
               4
  5
38E
 10
805.93638035827303
 20
761.75960396906544
 30
0.0
 40
4.0
 50
270.0
 51
0.0
  0
ARC
  8
001
 62
               4
  5
38F
 10
732.33628035827292
 20
761.75960396906544
 30
0.0
 40
3.9999999999999911
 50
200.00019999999986
 51
269.99911999999932
  0
ARC
  8
001
 62
               4
  5
390
 10
720.93588035827293
 20
793.08190396906548
 30
0.0
 40
3.9999999999999893
 50
180.0
 51
200.00000000000009
  0
ARC
  8
001
 62
               4
  5
391
 10
718.93588035827293
 20
792.72920396906545
 30
0.0
 40
1.9999999999999865
 50
180.00019999818508
 51
199.99980000000019
  0
ARC
  8
001
  5
392
 10
401.8397453870993
 20
807.75960396906544
 30
0.0
 40
2.0
 50
90.0
 51
180.0
  0
ARC
  8
001
 62
               4
  5
393
 10
720.93588035827293
 20
793.08190396906548
 30
0.0
 40
1.999999999999998
 50
180.0
 51
199.99939999999992
  0
ARC
  8
001
  5
394
 10
379.83984538709933
 20
857.75960396906544
 30
0.0
 40
8.0
 50
90.0
 51
180.0
  0
ARC
  8
001
 62
               4
  5
395
 10
732.33628035827292
 20
761.75960396906544
 30
0.0
 40
2.0
 50
199.99920000000009
 51
270.0
  0
ARC
  8
001
  5
396
 10
446.8397453870993
 20
857.75960396906544
 30
0.0
 40
8.0
 50
0.0
 51
90.0
  0
ARC
  8
001
 62
               4
  5
397
 10
379.83984538709933
 20
908.75960396906544
 30
0.0
 40
8.0000000000000195
 50
180.0
 51
269.99990000000014
  0
ARC
  8
001
  5
398
 10
379.83984538709933
 20
799.75960396906544
 30
0.0
 40
8.0
 50
180.0
 51
270.0
  0
ARC
  8
001
 62
               4
  5
399
 10
514.83974538709936
 20
908.75960396906544
 30
0.0
 40
8.0
 50
270.00020999999998
 51
0.0
  0
ARC
  8
001
 62
               3
  5
39A
 10
510.83994538709936
 20
811.75960396906544
 30
0.0
 40
2.0
 50
180.0
 51
270.0
  0
ARC
  8
001
 62
               3
  5
39B
 10
769.93578035827295
 20
772.37310396906548
 30
0.0
 40
6.6135230000000069
 50
247.78939999999992
 51
292.21060000000006
  0
ARC
  8
001
 62
               3
  5
39C
 10
492.52144538709939
 20
768.0931039690654
 30
0.0
 40
2.3336119999999787
 50
270.24469999999923
 51
307.84099999999916
  0
ARC
  8
001
 62
               3
  5
39D
 10
501.1581453870993
 20
768.0931039690654
 30
0.0
 40
2.3336119999999987
 50
232.15900000000084
 51
269.75530000000072
  0
CIRCLE
  8
001
 62
               3
  5
39E
 10
785.93588035827293
 20
780.75960396906544
 30
0.0
 40
6.0
  0
ARC
  8
001
 62
               3
  5
39F
 10
155.03994538709935
 20
855.3594039690654
 30
0.0
 40
0.1999999999999886
 50
180.0
 51
270.0
  0
ARC
  8
001
 62
               3
  5
3A0
 10
155.03994538709935
 20
838.15930396906549
 30
0.0
 40
0.1999999999999886
 50
90.0
 51
180.0
  0
ARC
  8
001
 62
               3
  5
3A1
 10
156.83984538709933
 20
837.3594039690654
 30
0.0
 40
1.0
 50
0.0
 51
90.0
  0
ARC
  8
001
 62
               3
  5
3A2
 10
156.83984538709933
 20
856.15930396906549
 30
0.0
 40
1.0
 50
270.0
 51
0.0
  0
ARC
  8
001
 62
               3
  5
3A3
 10
156.83984538709933
 20
1192.8340998231822
 30
0.0
 40
1.0
 50
0.0
 51
90.0
  0
ARC
  8
001
 62
               3
  5
3A4
 10
155.03994538709935
 20
1193.6340998231822
 30
0.0
 40
0.1999999999999886
 50
90.0
 51
180.0
  0
ARC
  8
001
 62
               3
  5
3A5
 10
155.03994538709935
 20
1210.8340998231822
 30
0.0
 40
0.2000000000000455
 50
180.0
 51
270.0
  0
ARC
  8
001
 62
               3
  5
3A6
 10
156.83984538709933
 20
1211.6340998231822
 30
0.0
 40
1.0
 50
270.0
 51
0.0
  0
ARC
  8
001
 62
               3
  5
3A7
 10
567.03594538709945
 20
804.75960396906544
 30
0.0
 40
2.0
 50
209.99989999999869
 51
270.0
  0
ARC
  8
001
 62
               3
  5
3A8
 10
543.9473453870994
 20
885.75960396906544
 30
0.0
 40
3.0000000000000293
 50
221.81050000000059
 51
336.42185000000035
  0
ARC
  8
001
 62
               3
  5
3A9
 10
551.83974538709936
 20
890.75960396906544
 30
0.0
 40
5.0
 50
270.0
 51
0.0
  0
ARC
  8
001
 62
               3
  5
3AA
 10
548.52984538709939
 20
883.75960396906544
 30
0.0
 40
2.0000000000000462
 50
90.0
 51
156.42180000000016
  0
ARC
  8
001
 62
               3
  5
3AB
 10
619.35294538709945
 20
1228.7332998231823
 30
0.0
 40
5.4998749999999799
 50
270.0
 51
36.711129999999642
  0
ARC
  8
001
 62
               3
  5
3AC
 10
619.35284538709925
 20
1175.7354998231822
 30
0.0
 40
5.499874999999987
 50
323.28880000000049
 51
89.999929999999722
  0
ARC
  8
001
 62
               3
  5
3AD
 10
570.83974538709936
 20
1040.7596039690654
 30
0.0
 40
2.0
 50
90.0
 51
180.0
  0
ARC
  8
001
 62
               3
  5
3AE
 10
558.83974538709936
 20
927.74160396906541
 30
0.0
 40
2.0
 50
104.99920000000098
 51
180.0
  0
ARC
  8
001
 62
               3
  5
3AF
 10
634.3024453870994
 20
1204.6342998231821
 30
0.0
 40
1.5
 50
270.0
 51
0.0
  0
ARC
  8
001
 62
               3
  5
3B0
 10
634.3024453870994
 20
1229.8342998231824
 30
0.0
 40
1.5
 50
0.0
 51
90.0
  0
ARC
  8
001
 62
               3
  5
3B1
 10
822.93538035827305
 20
1000.6929039690655
 30
0.0
 40
5.0000000000000133
 50
0.0
 51
29.999979999999582
  0
ARC
  8
001
 62
               3
  5
3B2
 10
800.95838035827296
 20
1038.7595039690655
 30
0.0
 40
4.999999999999992
 50
30.000280000000334
 51
49.235299999999974
  0
ARC
  8
001
 62
               3
  5
3B3
 10
558.95304538709934
 20
804.75960396906544
 30
0.0
 40
5.0
 50
29.999930000000038
 51
90.0
  0
CIRCLE
  8
001
 62
               3
  5
3B4
 10
743.93608035827287
 20
1033.7596039690654
 30
0.0
 40
4.25
  0
CIRCLE
  8
001
 62
               3
  5
3B5
 10
748.93588035827293
 20
809.75960396906544
 30
0.0
 40
4.25
  0
CIRCLE
  8
001
 62
               3
  5
3B6
 10
792.93578035827295
 20
809.75960396906544
 30
0.0
 40
4.25
  0
ARC
  8
001
 62
               3
  5
3B7
 10
798.06728035827291
 20
1034.7596039690654
 30
0.0
 40
8.0
 50
29.999929999999758
 51
90.0
  0
ARC
  8
001
 62
               3
  5
3B8
 10
817.93638035827303
 20
1000.3457039690654
 30
0.0
 40
8.0000000000000426
 50
0.0
 51
29.999929999999758
  0
ARC
  8
001
 62
               3
  5
3B9
 10
616.83974538709936
 20
1028.7596039690654
 30
0.0
 40
1.0
 50
180.0
 51
270.0
  0
ARC
  8
001
 62
               3
  5
3BA
 10
614.9912453870993
 20
1041.2596039690654
 30
0.0
 40
1.5
 50
31.000140000001277
 51
90.0
  0
ARC
  8
001
 62
               3
  5
3BB
 10
739.93588035827293
 20
815.75960396906544
 30
0.0
 40
13.0
 50
179.99990000272982
 51
270.0
  0
ARC
  8
001
 62
               3
  5
3BC
 10
801.93638035827303
 20
815.75960396906544
 30
0.0
 40
13.000000000000012
 50
269.99972999999989
 51
359.99993133621325
  0
ARC
  8
001
  5
3BD
 10
453.8397453870993
 20
810.75960396906544
 30
0.0
 40
1.0
 50
270.00021000000157
 51
0.0
  0
ARC
  8
001
  5
3BE
 10
398.8397453870993
 20
792.75960396906544
 30
0.0
 40
1.0000000000000244
 50
269.99956000000134
 51
0.0001983623228549
  0
CIRCLE
  8
001
  5
3BF
 10
406.8397453870993
 20
858.75960396906544
 30
0.0
 40
3.5
  0
CIRCLE
  8
001
  5
3C0
 10
448.8397453870993
 20
858.75960396906544
 30
0.0
 40
3.5
  0
CIRCLE
  8
001
  5
3C1
 10
434.8397453870993
 20
813.25960396906544
 30
0.0
 40
3.5
  0
CIRCLE
  8
001
  5
3C2
 10
394.8397453870993
 20
813.25960396906544
 30
0.0
 40
3.5
  0
ARC
  8
001
  5
3C3
 10
729.93588035827293
 20
830.75960396906544
 30
0.0
 40
6.9999999999999956
 50
115.37690000000043
 51
212.23742166063778
  0
ARC
  8
001
 62
               4
  5
3C4
 10
805.93638035827303
 20
761.75960396906544
 30
0.0
 40
2.0
 50
270.0
 51
0.0
  0
ARC
  8
001
  5
3C5
 10
381.33984538709933
 20
857.25960396906544
 30
0.0
 40
12.500000000000028
 50
73.739789999999999
 51
106.2602
  0
ARC
  8
001
  5
3C6
 10
388.3397453870993
 20
857.25960396906544
 30
0.0
 40
12.500000000000028
 50
73.739789999999999
 51
106.2602
  0
ARC
  8
001
  5
3C7
 10
440.3397453870993
 20
857.25960396906544
 30
0.0
 40
12.500000000000028
 50
73.739789999999999
 51
106.2602
  0
ARC
  8
001
  5
3C8
 10
433.3397453870993
 20
857.25960396906544
 30
0.0
 40
12.500000000000028
 50
73.739789999999999
 51
106.2602
  0
ARC
  8
001
  5
3C9
 10
392.33674538709937
 20
799.75960396906544
 30
0.0
 40
11.502999999999991
 50
339.34128999999984
 51
20.658710000000127
  0
ARC
  8
001
  5
3CA
 10
411.34284538709932
 20
799.75960396906544
 30
0.0
 40
11.503
 50
159.34130000000013
 51
200.65869999999987
  0
ARC
  8
001
  5
3CB
 10
403.76584538709932
 20
806.11150396906544
 30
0.0
 40
3.9260270000000301
 50
179.89350000000169
 51
215.74720000000011
  0
ARC
  8
001
  5
3CC
 10
399.91364538709939
 20
806.11150396906544
 30
0.0
 40
3.9260790000000232
 50
324.25329999999997
 51
0.1118926999999275
  0
ARC
  8
001
  5
3CD
 10
403.76584538709932
 20
793.40770396906544
 30
0.0
 40
3.9260269999999937
 50
144.25279999999989
 51
180.10649999999828
  0
ARC
  8
001
  5
3CE
 10
399.91364538709939
 20
793.40770396906544
 30
0.0
 40
3.9260789999999832
 50
359.88810730000006
 51
35.746700000000047
  0
ARC
  8
001
  5
3CF
 10
723.93588035827293
 20
860.75960396906544
 30
0.0
 40
4.9999999999999982
 50
90.0
 51
179.99990000272982
  0
ARC
  8
001
  5
3D0
 10
728.93588035827293
 20
801.75960396906544
 30
0.0
 40
10.0
 50
180.0
 51
270.0
  0
ARC
  8
001
 62
               4
  5
3D1
 10
720.93588035827293
 20
805.75960396906544
 30
0.0
 40
2.0
 50
90.0
 51
180.0
  0
ARC
  8
001
 62
               3
  5
3D2
 10
822.93538035827305
 20
1000.6929039690655
 30
0.0
 40
5.0000000000000133
 50
0.0
 51
29.999979999999582
  0
ARC
  8
001
 62
               4
  5
3D3
 10
720.93588035827293
 20
805.75960396906544
 30
0.0
 40
4.0
 50
90.0
 51
180.0
  0
ARC
  8
001
 62
               3
  5
3D4
 10
822.93538035827305
 20
972.82580396906542
 30
0.0
 40
5.0
 50
330.0000200000004
 51
0.0
  0
ARC
  8
001
 62
               3
  5
3D5
 10
718.93588035827293
 20
972.82620396906543
 30
0.0
 40
5.000000000000016
 50
180.0
 51
209.99999999999986
  0
ARC
  8
001
 62
               3
  5
3D6
 10
718.93588035827293
 20
1000.6929039690655
 30
0.0
 40
5.0
 50
149.99970000000005
 51
180.0
  0
ARC
  8
001
  5
3D7
 10
730.93588035827293
 20
849.75960396906544
 30
0.0
 40
5.0999999999999801
 50
141.65730000000011
 51
218.34269999999989
  0
ARC
  8
001
  5
3D8
 10
724.58398035827281
 20
869.68560396906548
 30
0.0
 40
3.9260269999999795
 50
269.8934699999993
 51
305.74724000000026
  0
ARC
  8
001
  5
3D9
 10
724.58398035827281
 20
865.83350396906542
 30
0.0
 40
3.9260790000000148
 50
54.253299999999271
 51
90.111889999999278
  0
ARC
  8
001
 62
               3
  5
3DA
 10
467.8397453870993
 20
1048.7596039690654
 30
0.0
 40
1.0
 50
180.0
 51
270.0
  0
ARC
  8
001
 62
               3
  5
3DB
 10
822.93638035827303
 20
900.34910396906548
 30
0.0
 40
8.0
 50
159.99999999999991
 51
180.0
  0
ARC
  8
001
 62
               3
  5
3DC
 10
817.93638035827303
 20
933.39240396906541
 30
0.0
 40
8.0
 50
339.99995000000018
 51
0.0
  0
CIRCLE
  8
001
 62
               3
  5
3DD
 10
797.93608035827287
 20
1033.7596039690654
 30
0.0
 40
4.25
  0
ARC
  8
001
  6
PHANTOM
 62
               3
  5
3DE
 10
154.83984538709933
 20
939.00960396906544
 30
0.0
 40
3.0
 50
0.0
 51
90.0
  0
ARC
  8
001
  6
PHANTOM
 62
               3
  5
3DF
 10
154.83984538709933
 20
954.50960396906544
 30
0.0
 40
3.0
 50
270.0
 51
0.0
  0
ARC
  8
001
  6
PHANTOM
 62
               3
  5
3E0
 10
154.83984538709933
 20
1054.5096039691362
 30
0.0
 40
3.0
 50
270.0
 51
0.0
  0
ARC
  8
001
  6
PHANTOM
 62
               3
  5
3E1
 10
154.83984538709933
 20
1039.0096039691362
 30
0.0
 40
3.0
 50
0.0
 51
90.0
  0
ARC
  8
001
 62
               3
  5
3E2
 10
743.80498035827281
 20
1034.7596039690654
 30
0.0
 40
7.9999999999999742
 50
90.000440000000324
 51
150.0000999999998
  0
ARC
  8
001
 62
               3
  5
3E3
 10
723.93588035827293
 20
1000.3458039690654
 30
0.0
 40
8.0000000000000195
 50
149.99999999999989
 51
179.99990000272982
  0
ARC
  8
001
 62
               3
  5
3E4
 10
718.93588035827293
 20
900.34920396906546
 30
0.0
 40
8.0000000000000213
 50
0.0
 51
20.000049999999817
  0
ARC
  8
001
 62
               3
  5
3E5
 10
723.93608035827287
 20
933.39240396906541
 30
0.0
 40
8.0000000000000089
 50
180.0
 51
200.00009999999997
  0
ARC
  8
001
 62
               3
  5
3E6
 10
623.83974538709936
 20
817.67170396906545
 30
0.0
 40
1.9999999999999609
 50
324.99996000000027
 51
0.00043869013528
  0
ARC
  8
001
 62
               3
  5
3E7
 10
623.83974538709936
 20
1025.5622039690654
 30
0.0
 40
2.0000000000000488
 50
0.0
 51
31.000490000000074
  0
ARC
  8
001
 62
               3
  5
3E8
 10
615.05904538709933
 20
804.25960396906544
 30
0.0
 40
1.5000000000000113
 50
270.0
 51
324.99996000000067
  0
ARC
  8
001
 62
               3
  5
3E9
 10
570.83974538709936
 20
1149.2343998231822
 30
0.0
 40
2.0
 50
180.0
 51
270.0
  0
ARC
  8
001
 62
               3
  5
3EA
 10
570.83974538709936
 20
1255.2343998231822
 30
0.0
 40
2.0
 50
90.0
 51
180.0
  0
ARC
  8
001
 62
               3
  5
3EB
 10
564.34544538709929
 20
1255.2343998231822
 30
0.0
 40
1.9999999999999671
 50
89.999940000000478
 51
149.99999999999946
  0
ARC
  8
001
 62
               3
  5
3EC
 10
740.91388035827299
 20
1038.7596039690654
 30
0.0
 40
4.9999999999999858
 50
130.76470000000003
 51
149.99969999999945
  0
ARC
  8
001
 62
               3
  5
3ED
 10
778.43588035827293
 20
814.75960396906544
 30
0.0
 40
14.000000000000009
 50
238.99810000000002
 51
301.00309000000016
  0
ARC
  8
001
 62
               3
  5
3EE
 10
564.34524538709934
 20
1149.2343998231822
 30
0.0
 40
2.0
 50
209.99990000000011
 51
270.0
  0
ARC
  8
001
 62
               3
  5
3EF
 10
369.83984538709933
 20
701.75960396906544
 30
0.0
 40
2.000000000000008
 50
0.0
 51
89.999130000000349
  0
ARC
  8
001
 62
               3
  5
3F0
 10
373.83984538709933
 20
701.75960396906544
 30
0.0
 40
2.0
 50
180.0
 51
270.0
  0
ARC
  8
001
 62
               3
  5
3F1
 10
368.87414538709936
 20
627.75960396906544
 30
0.0
 40
1.0
 50
2.0002879999996002
 51
90.0
  0
ARC
  8
001
 62
               3
  5
3F2
 10
374.44804538709934
 20
582.75950396906546
 30
0.0
 40
3.0
 50
181.99999999999994
 51
270.0
  0
ARC
  8
001
 62
               3
  5
3F3
 10
378.93794538709932
 20
582.75960396906544
 30
0.0
 40
3.0000000000000209
 50
270.0
 51
358.99979400000007
  0
ARC
  8
001
 62
               3
  5
3F4
 10
399.88454538709931
 20
607.75960396906544
 30
0.0
 40
1.999999999999976
 50
270.00042999999931
 51
358.00036599999993
  0
ARC
  8
001
 62
               3
  5
3F5
 10
417.13944538709933
 20
614.75960396906544
 30
0.0
 40
14.999999999999988
 50
90.000059999999962
 51
130.82839999999999
  0
ARC
  8
001
 62
               3
  5
3F6
 10
399.12844538709936
 20
614.75960396906544
 30
0.0
 40
2.9999999999999969
 50
270.00028999999989
 51
294.38602999999995
  0
ARC
  8
001
 62
               3
  5
3F7
 10
384.30524538709932
 20
603.75960396906544
 30
0.0
 40
2.0000000000000262
 50
90.0
 51
179.00000000000011
  0
ARC
  8
001
 62
               4
  5
3F8
 10
379.83984538709933
 20
728.75960396906544
 30
0.0
 40
7.9999999999999911
 50
180.0
 51
269.99990000000014
  0
CIRCLE
  8
001
 62
               2
  5
3F9
 10
406.8397453870993
 20
678.75960396906544
 30
0.0
 40
3.5
  0
CIRCLE
  8
001
 62
               2
  5
3FA
 10
394.8397453870993
 20
633.25960396906544
 30
0.0
 40
3.5
  0
ARC
  8
001
 62
               2
  5
3FB
 10
376.83984538709933
 20
678.75960396906544
 30
0.0
 40
5.0
 50
90.0
 51
180.0
  0
ARC
  8
001
 62
               2
  5
3FC
 10
376.83984538709933
 20
634.75960396906544
 30
0.0
 40
5.0
 50
180.0
 51
270.0
  0
ARC
  8
001
 62
               2
  5
3FD
 10
416.83984538709939
 20
634.75960396906544
 30
0.0
 40
5.0
 50
270.0
 51
0.0
  0
ARC
  8
001
 62
               2
  5
3FE
 10
416.83984538709939
 20
678.75960396906544
 30
0.0
 40
5.0
 50
0.0
 51
90.0
  0
CIRCLE
  8
001
 62
               2
  5
3FF
 10
394.8397453870993
 20
633.25960396906544
 30
0.0
 40
3.5
  0
ARC
  8
001
 62
               2
  5
400
 10
394.8397453870993
 20
633.25960396906544
 30
0.0
 40
4.1999999999999815
 50
236.44289999999992
 51
303.5575999999997
  0
ARC
  8
001
 62
               3
  5
401
 10
417.13944538709933
 20
614.75960396906544
 30
0.0
 40
15.000000000000012
 50
130.82909999999995
 51
177.99919999999989
  0
ARC
  8
001
 62
               3
  5
402
 10
399.12844538709936
 20
614.75960396906544
 30
0.0
 40
3.0000000000000262
 50
294.3873099999995
 51
357.99958800000013
  0
ARC
  8
001
  6
PHANTOM
  5
403
 10
655.33974538709936
 20
793.35960396906546
 30
0.0
 40
1.5
 50
0.0
 51
90.0
  0
ARC
  8
001
  6
PHANTOM
  5
404
 10
655.33974538709936
 20
768.15960396906542
 30
0.0
 40
1.5
 50
270.0
 51
0.0
  0
ARC
  8
001
  6
PHANTOM
  5
405
 10
655.33974538709936
 20
1229.8343248708954
 30
0.0
 40
1.5
 50
0.0
 51
90.0
  0
ARC
  8
001
  6
PHANTOM
  5
406
 10
655.33974538709936
 20
1204.6343248708954
 30
0.0
 40
1.5
 50
270.0
 51
0.0
  0
ARC
  8
001
 62
               3
  5
407
 10
381.33941682873217
 20
1172.7343998231822
 30
0.0
 40
32.5
 50
255.74996730219638
 51
284.25003269780359
  0
ARC
  8
001
 62
               3
  5
408
 10
785.43638035827303
 20
826.76133701795447
 30
0.0
 40
32.5
 50
345.74996730219641
 51
14.250032697803574
  0
ARC
  8
001
 62
               3
  5
409
 10
756.43588035827293
 20
824.75970396906541
 30
0.0
 40
32.5
 50
165.74996730219641
 51
194.25003269780359
  0
ARC
  8
001
 62
               3
  5
40A
 10
741.43588035827293
 20
813.25960396906544
 30
0.0
 40
32.5
 50
169.27797924925656
 51
194.25003269780359
  0
ARC
  8
001
  5
40B
 10
723.93588035827293
 20
814.75963396906548
 30
0.0
 40
5.0
 50
240.00000000000009
 51
270.0
  0
ARC
  8
001
  5
40C
 10
452.83988538709929
 20
1142.2343998231822
 30
0.0
 40
2.0000000000000004
 50
270.0
 51
359.32206323969007
  0
ARC
  8
001
  5
40D
 10
425.6683125118455
 20
1142.2343998231822
 30
0.0
 40
2.0
 50
225.0
 51
270.0
  0
ARC
  8
001
  5
40E
 10
716.93588035827293
 20
850.91430450744474
 30
0.0
 40
2.0
 50
299.99999999999972
 51
0.0
  0
ARC
  8
001
  5
40F
 10
716.93588035827293
 20
839.36729912365217
 30
0.0
 40
8.0
 50
119.99999999999994
 51
180.0
  0
ARC
  8
001
  5
410
 10
716.93588035827293
 20
822.2651874685306
 30
0.0
 40
8.000000000000016
 50
180.0
 51
240.00000000000009
  0
CIRCLE
  8
001
  5
411
 10
718.93588035827293
 20
821.25960396906544
 30
0.0
 40
4.8640000000000327
  0
CIRCLE
  8
001
  5
412
 10
717.93588035827293
 20
839.75960396906544
 30
0.0
 40
4.8640000000000327
  0
CIRCLE
  8
001
  5
413
 10
717.93588035827293
 20
839.75960396906544
 30
0.0
 40
4.27800000000002
  0
CIRCLE
  8
001
  5
414
 10
718.93588035827293
 20
821.25960396906544
 30
0.0
 40
4.27800000000002
  0
TEXT
  8
001
 62
               2
  5
415
 10
416.33984538709933
 20
669.75960396906544
 30
0.0
 40
5.0
  1
F
 41
0.6719999790191651
  0
TEXT
  8
001
 62
               2
  5
416
 10
416.33984538709933
 20
648.75960396906544
 30
0.0
 40
5.0
  1
R
 41
0.6719999790191651
  0
TEXT
  8
001
  5
417
 10
542.89013466550887
 20
769.49168326143945
 30
0.0
 40
10.0
  1
RB-2430
 41
0.5121951469363487
  0
ARC
  8
001
 62
               3
  5
418
 10
129.83984538684058
 20
649.34865051538941
 30
0.0
 40
1.0
 50
270.0
 51
0.0
  0
ARC
  8
001
 62
               3
  5
419
 10
129.83984538684058
 20
618.34865051538941
 30
0.0
 40
1.0
 50
0.0000000000000127
 51
90.000000000000014
  0
LINE
  8
001
 62
               3
  5
41A
 10
115.83984538684057
 20
645.84865051538941
 30
0.0
 11
129.83984538684058
 21
645.84865051538941
 31
0.0
  0
LINE
  8
001
 62
               3
  5
41B
 10
115.83984538684057
 20
646.34865051538941
 30
0.0
 11
115.83984538684057
 21
645.84865051538941
 31
0.0
  0
LINE
  8
001
 62
               3
  5
41C
 10
129.83984538684058
 20
645.84865051538941
 30
0.0
 11
129.83984538684058
 21
648.34865051538941
 31
0.0
  0
LINE
  8
001
 62
               3
  5
41D
 10
115.83984538684057
 20
621.84865051538941
 30
0.0
 11
129.83984538684058
 21
621.84865051538941
 31
0.0
  0
LINE
  8
001
 62
               3
  5
41E
 10
115.83984538684057
 20
621.34865051538941
 30
0.0
 11
115.83984538684057
 21
621.84865051538941
 31
0.0
  0
LINE
  8
001
 62
               3
  5
41F
 10
129.83984538684058
 20
619.34865051538941
 30
0.0
 11
129.83984538684058
 21
621.84865051538941
 31
0.0
  0
LINE
  8
001
 62
               3
  5
420
 10
111.33984538684057
 20
621.34865051538941
 30
0.0
 11
111.33984538684057
 21
646.34865051538941
 31
0.0
  0
LINE
  8
001
 62
               3
  5
421
 10
144.98352943348948
 20
657.34865051538941
 30
0.0
 11
130.83984538684052
 21
657.34865051538941
 31
0.0
  0
LINE
  8
001
 62
               3
  5
422
 10
136.69616134019162
 20
610.34865051538941
 30
0.0
 11
130.83984538684058
 21
610.34865051538941
 31
0.0
  0
LINE
  8
001
 62
               3
  5
423
 10
86.339845386840565
 20
619.84875051538938
 30
0.0
 11
86.339845386840565
 21
647.84875051538938
 31
0.0
  0
LINE
  8
001
 62
               3
  5
424
 10
105.33984538684057
 20
617.84875051538938
 30
0.0
 11
105.33984538684057
 21
649.84875051538938
 31
0.0
  0
LINE
  8
001
 62
               3
  5
425
 10
88.071896194409632
 20
650.84875051538938
 30
0.0
 11
104.33984538684057
 21
650.84875051538938
 31
0.0
  0
LINE
  8
001
 62
               3
  5
426
 10
88.071896194409632
 20
616.84875051538938
 30
0.0
 11
104.33984538684057
 21
616.84875051538938
 31
0.0
  0
LINE
  8
001
 62
               3
  5
427
 10
88.071896194409632
 20
642.83913157215625
 30
0.0
 11
98.339845386840565
 21
642.83913157215625
 31
0.0
  0
LINE
  8
001
 62
               3
  5
428
 10
88.071896194409632
 20
641.84875051538938
 30
0.0
 11
98.339845386840565
 21
641.84875051538938
 31
0.0
  0
LINE
  8
001
 62
               3
  5
429
 10
88.071896194409632
 20
625.84875051538938
 30
0.0
 11
98.339845386840565
 21
625.84875051538938
 31
0.0
  0
LINE
  8
001
 62
               3
  5
42A
 10
88.071896194409632
 20
624.85836945862275
 30
0.0
 11
98.339845386840565
 21
624.85836945862275
 31
0.0
  0
LINE
  8
001
 62
               3
  5
42B
 10
86.339845386840565
 20
647.84875051538938
 30
0.0
 11
88.071896194409632
 21
650.84875051538938
 31
0.0
  0
LINE
  8
001
 62
               3
  5
42C
 10
86.339845386840565
 20
619.84875051538938
 30
0.0
 11
88.071896194409632
 21
616.84875051538938
 31
0.0
  0
LINE
  8
001
 62
               3
  5
42D
 10
98.339845386840565
 20
616.84875051538938
 30
0.0
 11
98.339845386840565
 21
624.85836945862275
 31
0.0
  0
LINE
  8
001
 62
               3
  5
42E
 10
98.339845386840565
 20
625.84875051538938
 30
0.0
 11
98.339845386840565
 21
641.84875051538938
 31
0.0
  0
LINE
  8
001
 62
               3
  5
42F
 10
98.339845386840565
 20
642.83913157215625
 30
0.0
 11
98.339845386840565
 21
650.84875051538938
 31
0.0
  0
LINE
  8
001
 62
               3
  5
430
 10
88.071896194409632
 20
642.83913157215625
 30
0.0
 11
88.071896194409632
 21
641.84875051538938
 31
0.0
  0
LINE
  8
001
 62
               3
  5
431
 10
88.071896194409632
 20
625.84875051538938
 30
0.0
 11
88.071896194409177
 21
624.85836945862275
 31
0.0
  0
LINE
  8
001
 62
               3
  5
432
 10
104.33984538684057
 20
650.84875051538938
 30
0.0
 11
105.33984538684057
 21
649.84875051538938
 31
0.0
  0
LINE
  8
001
 62
               3
  5
433
 10
105.33984538684057
 20
617.84875051538938
 30
0.0
 11
104.33984538684057
 21
616.84875051538938
 31
0.0
  0
LINE
  8
001
 62
               3
  5
434
 10
104.33984538684057
 20
650.84875051538938
 30
0.0
 11
104.33984538684057
 21
616.84875051538938
 31
0.0
  0
LINE
  8
001
 62
               3
  5
435
 10
98.339845386840565
 20
650.84875051538938
 30
0.0
 11
88.071896194409632
 21
642.83913157215625
 31
0.0
  0
LINE
  8
001
 62
               3
  5
436
 10
88.071896194409632
 20
650.84875051538938
 30
0.0
 11
98.339845386840565
 21
642.83913157215625
 31
0.0
  0
LINE
  8
001
 62
               3
  5
437
 10
98.339845386840565
 20
641.84875051538938
 30
0.0
 11
88.071896194409632
 21
625.84875051538938
 31
0.0
  0
LINE
  8
001
 62
               3
  5
438
 10
88.071896194409632
 20
641.84875051538938
 30
0.0
 11
98.339845386840565
 21
625.84875051538938
 31
0.0
  0
LINE
  8
001
 62
               3
  5
439
 10
98.339845386840565
 20
624.85836945862252
 30
0.0
 11
88.071896194409632
 21
616.84875051538938
 31
0.0
  0
LINE
  8
001
 62
               3
  5
43A
 10
88.071896194409177
 20
624.85836945862275
 30
0.0
 11
98.339845386840565
 21
616.84875051538938
 31
0.0
  0
ARC
  8
001
 62
               3
  5
43B
 10
105.68107940469257
 20
633.84875051538938
 30
0.0
 40
19.341234017851722
 50
155.56730232054483
 51
204.43269767945517
  0
ARC
  8
001
 62
               3
  5
43C
 10
94.450543362218227
 20
647.84875051538938
 30
0.0
 40
8.1106979753779402
 50
180.0
 51
218.14514360912378
  0
ARC
  8
001
 62
               3
  5
43D
 10
94.450543362218227
 20
619.84875051538938
 30
0.0
 40
8.1106979753778887
 50
141.85485639087622
 51
180.0
  0
ARC
  8
001
 62
               3
  5
43E
 10
83.33984538684102
 20
633.84875051538938
 30
0.0
 40
16.999999999999545
 50
331.92751306414669
 51
28.072486935853323
  0
ARC
  8
001
 62
               3
  5
43F
 10
95.330226443607202
 20
646.8439410437727
 30
0.0
 40
5.0096212518930203
 50
306.92490429281207
 51
53.075095707186641
  0
ARC
  8
001
 62
               3
  5
440
 10
95.330226443607202
 20
620.85355998700607
 30
0.0
 40
5.0096212518930772
 50
306.92490429281287
 51
53.075095707187913
  0
LINE
  8
001
 62
               3
  5
441
 10
115.83984538684057
 20
646.34865051538941
 30
0.0
 11
105.33984538684057
 21
646.34865051538941
 31
0.0
  0
LINE
  8
001
 62
               3
  5
442
 10
105.33984538684057
 20
645.59865051538941
 30
0.0
 11
111.33984538684057
 21
645.59865051538941
 31
0.0
  0
LINE
  8
001
 62
               3
  5
443
 10
105.33984538684057
 20
622.09865051538941
 30
0.0
 11
111.33984538684057
 21
622.09865051538941
 31
0.0
  0
LINE
  8
001
 62
               3
  5
444
 10
115.83984538684057
 20
621.34865051538941
 30
0.0
 11
105.33984538684057
 21
621.34865051538941
 31
0.0
  0
LINE
  8
001
  6
PHANTOM
 62
               3
  5
445
 10
136.69616134019162
 20
610.34865051538941
 30
0.0
 11
144.98352943348948
 21
657.34865051538941
 31
0.0
  0
LINE
  8
001
  6
CENTER
  5
446
 10
142.38769263002769
 20
633.84865051538941
 30
0.0
 11
83.063506437694741
 21
633.84865051538941
 31
0.0
  0
LINE
  8
001
 62
               3
  5
447
 10
130.83984538684058
 20
657.34865051538941
 30
0.0
 11
130.83984538684058
 21
610.34865051538941
 31
0.0
  0
LINE
  8
001
  6
PHANTOM
 62
               3
  5
448
 10
233.43389801594998
 20
324.06284936928
 30
0.0
 11
190.43784538709929
 21
324.06284936928
 31
0.0
  0
LINE
  8
001
  6
PHANTOM
 62
               3
  5
449
 10
184.83984538709933
 20
325.56284936928
 30
0.0
 11
190.43784538709929
 21
324.06284936928
 31
0.0
  0
LINE
  8
001
  6
PHANTOM
 62
               3
  5
44A
 10
184.83984538709933
 20
396.56284936928
 30
0.0
 11
184.83984538709933
 21
325.56284936928
 31
0.0
  0
LINE
  8
001
  6
PHANTOM
 62
               3
  5
44B
 10
184.83984538709933
 20
396.56284936928
 30
0.0
 11
190.43784538709929
 21
398.06274936928003
 31
0.0
  0
LINE
  8
001
  6
PHANTOM
 62
               3
  5
44C
 10
234.38622817279008
 20
398.0627986382151
 30
0.0
 11
190.43784538709932
 21
398.06274936928003
 31
0.0
  0
LINE
  8
001
 62
               3
  5
44D
 10
184.83984538709933
 20
336.06284936928023
 30
0.0
 11
168.3398377577048
 21
336.06284936928023
 31
0.0
  0
LINE
  8
001
 62
               3
  5
44E
 10
146.83984538709933
 20
337.56294936927998
 30
0.0
 11
130.83984538709933
 21
337.56294936927998
 31
0.0
  0
LINE
  8
001
 62
               3
  5
44F
 10
146.83984538709933
 20
384.56294936927998
 30
0.0
 11
130.83984538709933
 21
384.56294936927998
 31
0.0
  0
LINE
  8
001
 62
               3
  5
450
 10
148.33984538709933
 20
384.56294936927998
 30
0.0
 11
147.33984538709933
 21
384.56294936927998
 31
0.0
  0
LINE
  8
001
 62
               3
  5
451
 10
168.33984538709933
 20
391.06294936927998
 30
0.0
 11
148.33984538709933
 21
391.06294936927998
 31
0.0
  0
LINE
  8
001
 62
               3
  5
452
 10
148.33984538709933
 20
337.56294936927998
 30
0.0
 11
147.33984538709933
 21
337.56294936927998
 31
0.0
  0
LINE
  8
001
 62
               3
  5
453
 10
168.33984538709933
 20
331.06294936927998
 30
0.0
 11
148.33984538709933
 21
331.06294936927998
 31
0.0
  0
LINE
  8
001
 62
               3
  5
454
 10
130.83984538709933
 20
384.56294936927998
 30
0.0
 11
130.83984538709933
 21
337.56294936927998
 31
0.0
  0
LINE
  8
001
 62
               3
  5
455
 10
146.83984538709933
 20
384.56294936927998
 30
0.0
 11
146.83984538709933
 21
337.56294936927998
 31
0.0
  0
LINE
  8
001
 62
               3
  5
456
 10
147.33984538709933
 20
337.56294936927998
 30
0.0
 11
147.33984538709933
 21
384.56294936927998
 31
0.0
  0
LINE
  8
001
 62
               3
  5
457
 10
146.83984538709933
 20
340.06294936927998
 30
0.0
 11
147.33984538709933
 21
340.06294936927998
 31
0.0
  0
LINE
  8
001
 62
               3
  5
458
 10
146.83984538709933
 20
382.06294936927998
 30
0.0
 11
147.33984538709933
 21
382.06294936927998
 31
0.0
  0
LINE
  8
001
 62
               3
  5
459
 10
148.33984538709933
 20
331.06294936927998
 30
0.0
 11
148.33984538709933
 21
391.06294936927998
 31
0.0
  0
LINE
  8
001
 62
               3
  5
45A
 10
168.33984538709933
 20
331.06294936927998
 30
0.0
 11
168.33984538709933
 21
391.06294936927998
 31
0.0
  0
LINE
  8
001
 62
               3
  5
45B
 10
184.83984538709933
 20
386.06274936928003
 30
0.0
 11
168.33984538709933
 21
386.06274936928003
 31
0.0
  0
LINE
  8
001
  6
DASHED
 62
               3
  5
45C
 10
155.83984538709944
 20
331.06294936928009
 30
0.0
 11
155.83984538709939
 21
336.06294936928009
 31
0.0
  0
LINE
  8
001
  6
DASHED
 62
               3
  5
45D
 10
155.40484538709927
 20
331.06294936928009
 30
0.0
 11
155.40484538709927
 21
336.06294936928009
 31
0.0
  0
LINE
  8
001
  6
DASHED
 62
               3
  5
45E
 10
151.27484538709939
 20
336.06294936928009
 30
0.0
 11
151.27484538709939
 21
331.06294936928009
 31
0.0
  0
LINE
  8
001
  6
DASHED
 62
               3
  5
45F
 10
150.83984538709933
 20
336.06294936928009
 30
0.0
 11
150.83984538709933
 21
331.06294936927998
 31
0.0
  0
LINE
  8
001
  6
CENTER
  5
460
 10
153.33984538709933
 20
336.60119096877963
 30
0.0
 11
153.33984538709933
 21
329.90372160113833
 31
0.0
  0
POLYLINE
  8
001
  6
PHANTOM
 62
               3
  5
461
 66
               1
 10
0.0
 20
0.0
 30
0.0
  0
VERTEX
  8
001
  6
PHANTOM
 62
               3
  5
462
 10
234.38623672016956
 20
398.06275043546987
 30
0.0
  0
VERTEX
  8
001
  6
PHANTOM
 62
               3
  5
463
 10
234.91082526248073
 20
395.12488363920704
 30
0.0
  0
VERTEX
  8
001
  6
PHANTOM
 62
               3
  5
464
 10
235.38759481095667
 20
392.18707326671193
 30
0.0
  0
VERTEX
  8
001
  6
PHANTOM
 62
               3
  5
465
 10
235.76872715633189
 20
389.24937574082639
 30
0.0
  0
VERTEX
  8
001
  6
PHANTOM
 62
               3
  5
466
 10
236.00640408934095
 20
386.31184748439239
 30
0.0
  0
VERTEX
  8
001
  6
PHANTOM
 62
               3
  5
467
 10
236.05280740071839
 20
383.37454492025188
 30
0.0
  0
VERTEX
  8
001
  6
PHANTOM
 62
               3
  5
468
 10
235.8251328704753
 20
379.85360664530884
 30
0.0
  0
VERTEX
  8
001
  6
PHANTOM
 62
               3
  5
469
 10
235.38735021786019
 20
376.3321997621814
 30
0.0
  0
VERTEX
  8
001
  6
PHANTOM
 62
               3
  5
46A
 10
234.87293869329255
 20
372.80945024859045
 30
0.0
  0
VERTEX
  8
001
  6
PHANTOM
 62
               3
  5
46B
 10
234.41537754719192
 20
369.28448408225677
 30
0.0
  0
VERTEX
  8
001
  6
PHANTOM
 62
               3
  5
46C
 10
234.14814602997777
 20
365.75642724090119
 30
0.0
  0
VERTEX
  8
001
  6
PHANTOM
 62
               3
  5
46D
 10
234.18233549742789
 20
361.85503860040183
 30
0.0
  0
VERTEX
  8
001
  6
PHANTOM
 62
               3
  5
46E
 10
234.47696088534863
 20
357.95043927277948
 30
0.0
  0
VERTEX
  8
001
  6
PHANTOM
 62
               3
  5
46F
 10
234.89734114234986
 20
354.0442563603977
 30
0.0
  0
VERTEX
  8
001
  6
PHANTOM
 62
               3
  5
470
 10
235.30879521704142
 20
350.13811696561999
 30
0.0
  0
VERTEX
  8
001
  6
PHANTOM
 62
               3
  5
471
 10
235.57664205803323
 20
346.23364819080996
 30
0.0
  0
VERTEX
  8
001
  6
PHANTOM
 62
               3
  5
472
 10
235.58048196914027
 20
341.79436461061761
 30
0.0
  0
VERTEX
  8
001
  6
PHANTOM
 62
               3
  5
473
 10
235.2960627338982
 20
337.35849690768282
 30
0.0
  0
VERTEX
  8
001
  6
PHANTOM
 62
               3
  5
474
 10
234.79544913889427
 20
332.92519111269121
 30
0.0
  0
VERTEX
  8
001
  6
PHANTOM
 62
               3
  5
475
 10
234.15070597071579
 20
328.49359325632838
 30
0.0
  0
VERTEX
  8
001
  6
PHANTOM
 62
               3
  5
476
 10
233.43389801595001
 20
324.06284936928
 30
0.0
  0
SEQEND
  8
001
  5
477
  0
LINE
  8
001
  6
PHANTOM
 62
               3
  5
478
 10
233.43389801594998
 20
424.06284936928
 30
0.0
 11
190.43784538709929
 21
424.06284936928
 31
0.0
  0
LINE
  8
001
  6
PHANTOM
 62
               3
  5
479
 10
184.83984538709933
 20
425.56284936928
 30
0.0
 11
190.43784538709929
 21
424.06284936928
 31
0.0
  0
LINE
  8
001
  6
PHANTOM
 62
               3
  5
47A
 10
184.83984538709933
 20
496.56284936928
 30
0.0
 11
184.83984538709933
 21
425.56284936928
 31
0.0
  0
LINE
  8
001
  6
PHANTOM
 62
               3
  5
47B
 10
184.83984538709933
 20
496.56284936928
 30
0.0
 11
190.43784538709929
 21
498.06274936928003
 31
0.0
  0
LINE
  8
001
  6
PHANTOM
 62
               3
  5
47C
 10
234.38622817279008
 20
498.0627986382151
 30
0.0
 11
190.43784538709932
 21
498.06274936928003
 31
0.0
  0
LINE
  8
001
 62
               3
  5
47D
 10
184.83984538709933
 20
436.06284936928023
 30
0.0
 11
168.3398377577048
 21
436.06284936928023
 31
0.0
  0
LINE
  8
001
 62
               3
  5
47E
 10
146.83984538709933
 20
437.56294936927998
 30
0.0
 11
130.83984538709933
 21
437.56294936927998
 31
0.0
  0
LINE
  8
001
 62
               3
  5
47F
 10
146.83984538709933
 20
484.56294936927998
 30
0.0
 11
130.83984538709933
 21
484.56294936927998
 31
0.0
  0
LINE
  8
001
 62
               3
  5
480
 10
148.33984538709933
 20
484.56294936927998
 30
0.0
 11
147.33984538709933
 21
484.56294936927998
 31
0.0
  0
LINE
  8
001
 62
               3
  5
481
 10
168.33984538709933
 20
491.06294936927998
 30
0.0
 11
148.33984538709933
 21
491.06294936927998
 31
0.0
  0
LINE
  8
001
 62
               3
  5
482
 10
148.33984538709933
 20
437.56294936927998
 30
0.0
 11
147.33984538709933
 21
437.56294936927998
 31
0.0
  0
LINE
  8
001
 62
               3
  5
483
 10
168.33984538709933
 20
431.06294936927998
 30
0.0
 11
148.33984538709933
 21
431.06294936927998
 31
0.0
  0
LINE
  8
001
 62
               3
  5
484
 10
130.83984538709933
 20
484.56294936927998
 30
0.0
 11
130.83984538709933
 21
437.56294936927998
 31
0.0
  0
LINE
  8
001
 62
               3
  5
485
 10
146.83984538709933
 20
484.56294936927998
 30
0.0
 11
146.83984538709933
 21
437.56294936927998
 31
0.0
  0
LINE
  8
001
 62
               3
  5
486
 10
147.33984538709933
 20
437.56294936927998
 30
0.0
 11
147.33984538709933
 21
484.56294936927998
 31
0.0
  0
LINE
  8
001
 62
               3
  5
487
 10
146.83984538709933
 20
440.06294936927998
 30
0.0
 11
147.33984538709933
 21
440.06294936927998
 31
0.0
  0
LINE
  8
001
 62
               3
  5
488
 10
146.83984538709933
 20
482.06294936927998
 30
0.0
 11
147.33984538709933
 21
482.06294936927998
 31
0.0
  0
LINE
  8
001
 62
               3
  5
489
 10
148.33984538709933
 20
431.06294936927998
 30
0.0
 11
148.33984538709933
 21
491.06294936927998
 31
0.0
  0
LINE
  8
001
 62
               3
  5
48A
 10
168.33984538709933
 20
431.06294936927998
 30
0.0
 11
168.33984538709933
 21
491.06294936927998
 31
0.0
  0
LINE
  8
001
 62
               3
  5
48B
 10
184.83984538709933
 20
486.06274936928003
 30
0.0
 11
168.33984538709933
 21
486.06274936928003
 31
0.0
  0
LINE
  8
001
  6
DASHED
 62
               3
  5
48C
 10
155.83984538709944
 20
431.06294936928009
 30
0.0
 11
155.83984538709939
 21
436.06294936928009
 31
0.0
  0
LINE
  8
001
  6
DASHED
 62
               3
  5
48D
 10
155.40484538709927
 20
431.06294936928009
 30
0.0
 11
155.40484538709927
 21
436.06294936928009
 31
0.0
  0
LINE
  8
001
  6
DASHED
 62
               3
  5
48E
 10
151.27484538709939
 20
436.06294936928009
 30
0.0
 11
151.27484538709939
 21
431.06294936928009
 31
0.0
  0
LINE
  8
001
  6
DASHED
 62
               3
  5
48F
 10
150.83984538709933
 20
436.06294936928009
 30
0.0
 11
150.83984538709933
 21
431.06294936927998
 31
0.0
  0
LINE
  8
001
  6
CENTER
  5
490
 10
153.33984538709933
 20
436.60119096877963
 30
0.0
 11
153.33984538709933
 21
429.90372160113833
 31
0.0
  0
POLYLINE
  8
001
  6
PHANTOM
 62
               3
  5
491
 66
               1
 10
0.0
 20
0.0
 30
0.0
  0
VERTEX
  8
001
  6
PHANTOM
 62
               3
  5
492
 10
234.38623672016956
 20
498.06275043546987
 30
0.0
  0
VERTEX
  8
001
  6
PHANTOM
 62
               3
  5
493
 10
234.91082526248073
 20
495.12488363920704
 30
0.0
  0
VERTEX
  8
001
  6
PHANTOM
 62
               3
  5
494
 10
235.38759481095667
 20
492.18707326671193
 30
0.0
  0
VERTEX
  8
001
  6
PHANTOM
 62
               3
  5
495
 10
235.76872715633189
 20
489.24937574082639
 30
0.0
  0
VERTEX
  8
001
  6
PHANTOM
 62
               3
  5
496
 10
236.00640408934095
 20
486.31184748439239
 30
0.0
  0
VERTEX
  8
001
  6
PHANTOM
 62
               3
  5
497
 10
236.05280740071839
 20
483.37454492025188
 30
0.0
  0
VERTEX
  8
001
  6
PHANTOM
 62
               3
  5
498
 10
235.8251328704753
 20
479.85360664530884
 30
0.0
  0
VERTEX
  8
001
  6
PHANTOM
 62
               3
  5
499
 10
235.38735021786019
 20
476.3321997621814
 30
0.0
  0
VERTEX
  8
001
  6
PHANTOM
 62
               3
  5
49A
 10
234.87293869329255
 20
472.80945024859045
 30
0.0
  0
VERTEX
  8
001
  6
PHANTOM
 62
               3
  5
49B
 10
234.41537754719192
 20
469.28448408225677
 30
0.0
  0
VERTEX
  8
001
  6
PHANTOM
 62
               3
  5
49C
 10
234.14814602997777
 20
465.75642724090119
 30
0.0
  0
VERTEX
  8
001
  6
PHANTOM
 62
               3
  5
49D
 10
234.18233549742789
 20
461.85503860040183
 30
0.0
  0
VERTEX
  8
001
  6
PHANTOM
 62
               3
  5
49E
 10
234.47696088534863
 20
457.95043927277948
 30
0.0
  0
VERTEX
  8
001
  6
PHANTOM
 62
               3
  5
49F
 10
234.89734114234986
 20
454.0442563603977
 30
0.0
  0
VERTEX
  8
001
  6
PHANTOM
 62
               3
  5
4A0
 10
235.30879521704142
 20
450.13811696561999
 30
0.0
  0
VERTEX
  8
001
  6
PHANTOM
 62
               3
  5
4A1
 10
235.57664205803323
 20
446.23364819080996
 30
0.0
  0
VERTEX
  8
001
  6
PHANTOM
 62
               3
  5
4A2
 10
235.58048196914027
 20
441.79436461061761
 30
0.0
  0
VERTEX
  8
001
  6
PHANTOM
 62
               3
  5
4A3
 10
235.2960627338982
 20
437.35849690768282
 30
0.0
  0
VERTEX
  8
001
  6
PHANTOM
 62
               3
  5
4A4
 10
234.79544913889427
 20
432.92519111269121
 30
0.0
  0
VERTEX
  8
001
  6
PHANTOM
 62
               3
  5
4A5
 10
234.15070597071579
 20
428.49359325632838
 30
0.0
  0
VERTEX
  8
001
  6
PHANTOM
 62
               3
  5
4A6
 10
233.43389801595001
 20
424.06284936928
 30
0.0
  0
SEQEND
  8
001
  5
4A7
  0
LINE
  8
001
  6
PHANTOM
 62
               3
  5
4A8
 10
233.43389801594998
 20
224.06284936928
 30
0.0
 11
190.43784538709929
 21
224.06284936928
 31
0.0
  0
LINE
  8
001
  6
PHANTOM
 62
               3
  5
4A9
 10
184.83984538709933
 20
225.56284936928
 30
0.0
 11
190.43784538709929
 21
224.06284936928
 31
0.0
  0
LINE
  8
001
  6
PHANTOM
 62
               3
  5
4AA
 10
184.83984538709933
 20
296.56284936928
 30
0.0
 11
184.83984538709933
 21
225.56284936928
 31
0.0
  0
LINE
  8
001
  6
PHANTOM
 62
               3
  5
4AB
 10
184.83984538709933
 20
296.56284936928
 30
0.0
 11
190.43784538709929
 21
298.06274936928003
 31
0.0
  0
LINE
  8
001
  6
PHANTOM
 62
               3
  5
4AC
 10
234.38622817279008
 20
298.0627986382151
 30
0.0
 11
190.43784538709932
 21
298.06274936928003
 31
0.0
  0
LINE
  8
001
 62
               3
  5
4AD
 10
184.83984538709933
 20
236.06284936928023
 30
0.0
 11
168.3398377577048
 21
236.06284936928023
 31
0.0
  0
LINE
  8
001
 62
               3
  5
4AE
 10
146.83984538709933
 20
237.56294936927998
 30
0.0
 11
130.83984538709933
 21
237.56294936927998
 31
0.0
  0
LINE
  8
001
 62
               3
  5
4AF
 10
146.83984538709933
 20
284.56294936927998
 30
0.0
 11
130.83984538709933
 21
284.56294936927998
 31
0.0
  0
LINE
  8
001
 62
               3
  5
4B0
 10
148.33984538709933
 20
284.56294936927998
 30
0.0
 11
147.33984538709933
 21
284.56294936927998
 31
0.0
  0
LINE
  8
001
 62
               3
  5
4B1
 10
168.33984538709933
 20
291.06294936927998
 30
0.0
 11
148.33984538709933
 21
291.06294936927998
 31
0.0
  0
LINE
  8
001
 62
               3
  5
4B2
 10
148.33984538709933
 20
237.56294936927998
 30
0.0
 11
147.33984538709933
 21
237.56294936927998
 31
0.0
  0
LINE
  8
001
 62
               3
  5
4B3
 10
168.33984538709933
 20
231.06294936927998
 30
0.0
 11
148.33984538709933
 21
231.06294936927998
 31
0.0
  0
LINE
  8
001
 62
               3
  5
4B4
 10
130.83984538709933
 20
284.56294936927998
 30
0.0
 11
130.83984538709933
 21
237.56294936927998
 31
0.0
  0
LINE
  8
001
 62
               3
  5
4B5
 10
146.83984538709933
 20
284.56294936927998
 30
0.0
 11
146.83984538709933
 21
237.56294936927998
 31
0.0
  0
LINE
  8
001
 62
               3
  5
4B6
 10
147.33984538709933
 20
237.56294936927998
 30
0.0
 11
147.33984538709933
 21
284.56294936927998
 31
0.0
  0
LINE
  8
001
 62
               3
  5
4B7
 10
146.83984538709933
 20
240.06294936927998
 30
0.0
 11
147.33984538709933
 21
240.06294936927998
 31
0.0
  0
LINE
  8
001
 62
               3
  5
4B8
 10
146.83984538709933
 20
282.06294936927998
 30
0.0
 11
147.33984538709933
 21
282.06294936927998
 31
0.0
  0
LINE
  8
001
 62
               3
  5
4B9
 10
148.33984538709933
 20
231.06294936927998
 30
0.0
 11
148.33984538709933
 21
291.06294936927998
 31
0.0
  0
LINE
  8
001
 62
               3
  5
4BA
 10
168.33984538709933
 20
231.06294936927998
 30
0.0
 11
168.33984538709933
 21
291.06294936927998
 31
0.0
  0
LINE
  8
001
 62
               3
  5
4BB
 10
184.83984538709933
 20
286.06274936928003
 30
0.0
 11
168.33984538709933
 21
286.06274936928003
 31
0.0
  0
LINE
  8
001
  6
DASHED
 62
               3
  5
4BC
 10
155.83984538709944
 20
231.06294936928009
 30
0.0
 11
155.83984538709939
 21
236.06294936928006
 31
0.0
  0
LINE
  8
001
  6
DASHED
 62
               3
  5
4BD
 10
155.40484538709927
 20
231.06294936928009
 30
0.0
 11
155.40484538709927
 21
236.06294936928009
 31
0.0
  0
LINE
  8
001
  6
DASHED
 62
               3
  5
4BE
 10
151.27484538709939
 20
236.06294936928009
 30
0.0
 11
151.27484538709939
 21
231.06294936928006
 31
0.0
  0
LINE
  8
001
  6
DASHED
 62
               3
  5
4BF
 10
150.83984538709933
 20
236.06294936928009
 30
0.0
 11
150.83984538709933
 21
231.06294936928001
 31
0.0
  0
LINE
  8
001
  6
CENTER
  5
4C0
 10
153.33984538709933
 20
236.60119096877963
 30
0.0
 11
153.33984538709933
 21
229.90372160113833
 31
0.0
  0
POLYLINE
  8
001
  6
PHANTOM
 62
               3
  5
4C1
 66
               1
 10
0.0
 20
0.0
 30
0.0
  0
VERTEX
  8
001
  6
PHANTOM
 62
               3
  5
4C2
 10
234.38623672016956
 20
298.06275043546987
 30
0.0
  0
VERTEX
  8
001
  6
PHANTOM
 62
               3
  5
4C3
 10
234.91082526248073
 20
295.12488363920704
 30
0.0
  0
VERTEX
  8
001
  6
PHANTOM
 62
               3
  5
4C4
 10
235.38759481095667
 20
292.18707326671193
 30
0.0
  0
VERTEX
  8
001
  6
PHANTOM
 62
               3
  5
4C5
 10
235.76872715633189
 20
289.24937574082639
 30
0.0
  0
VERTEX
  8
001
  6
PHANTOM
 62
               3
  5
4C6
 10
236.00640408934095
 20
286.31184748439239
 30
0.0
  0
VERTEX
  8
001
  6
PHANTOM
 62
               3
  5
4C7
 10
236.05280740071839
 20
283.37454492025188
 30
0.0
  0
VERTEX
  8
001
  6
PHANTOM
 62
               3
  5
4C8
 10
235.8251328704753
 20
279.85360664530884
 30
0.0
  0
VERTEX
  8
001
  6
PHANTOM
 62
               3
  5
4C9
 10
235.38735021786019
 20
276.3321997621814
 30
0.0
  0
VERTEX
  8
001
  6
PHANTOM
 62
               3
  5
4CA
 10
234.87293869329255
 20
272.80945024859045
 30
0.0
  0
VERTEX
  8
001
  6
PHANTOM
 62
               3
  5
4CB
 10
234.41537754719192
 20
269.28448408225677
 30
0.0
  0
VERTEX
  8
001
  6
PHANTOM
 62
               3
  5
4CC
 10
234.14814602997777
 20
265.75642724090119
 30
0.0
  0
VERTEX
  8
001
  6
PHANTOM
 62
               3
  5
4CD
 10
234.18233549742789
 20
261.85503860040183
 30
0.0
  0
VERTEX
  8
001
  6
PHANTOM
 62
               3
  5
4CE
 10
234.47696088534863
 20
257.95043927277948
 30
0.0
  0
VERTEX
  8
001
  6
PHANTOM
 62
               3
  5
4CF
 10
234.89734114234986
 20
254.04425636039767
 30
0.0
  0
VERTEX
  8
001
  6
PHANTOM
 62
               3
  5
4D0
 10
235.30879521704142
 20
250.13811696562001
 30
0.0
  0
VERTEX
  8
001
  6
PHANTOM
 62
               3
  5
4D1
 10
235.57664205803323
 20
246.23364819080999
 30
0.0
  0
VERTEX
  8
001
  6
PHANTOM
 62
               3
  5
4D2
 10
235.58048196914027
 20
241.79436461061761
 30
0.0
  0
VERTEX
  8
001
  6
PHANTOM
 62
               3
  5
4D3
 10
235.2960627338982
 20
237.35849690768282
 30
0.0
  0
VERTEX
  8
001
  6
PHANTOM
 62
               3
  5
4D4
 10
234.79544913889427
 20
232.92519111269121
 30
0.0
  0
VERTEX
  8
001
  6
PHANTOM
 62
               3
  5
4D5
 10
234.15070597071579
 20
228.49359325632841
 30
0.0
  0
VERTEX
  8
001
  6
PHANTOM
 62
               3
  5
4D6
 10
233.43389801595001
 20
224.06284936927997
 30
0.0
  0
SEQEND
  8
001
  5
4D7
  0
LINE
  8
001
 62
               3
  5
4D8
 10
43.705870790884546
 20
479.56294936927998
 30
0.0
 11
41.839845387100105
 21
479.06294936927998
 31
0.0
  0
LINE
  8
001
 62
               3
  5
4D9
 10
43.705870790884546
 20
442.56294936927998
 30
0.0
 11
41.839845387100105
 21
443.06294936927998
 31
0.0
  0
LINE
  8
001
 62
               3
  5
4DA
 10
41.839845387099558
 20
443.06294936927998
 30
0.0
 11
41.839845387099558
 21
479.06294936927998
 31
0.0
  0
LINE
  8
001
 62
               3
  5
4DB
 10
129.83984538709933
 20
377.06294936927998
 30
0.0
 11
55.705870790884319
 21
377.06294936927998
 31
0.0
  0
LINE
  8
001
 62
               3
  5
4DC
 10
129.83984538709933
 20
345.06294936927998
 30
0.0
 11
55.705870790884319
 21
345.06294936927998
 31
0.0
  0
ARC
  8
001
 62
               3
  5
4DD
 10
129.83984538709933
 20
378.06294936927998
 30
0.0
 40
1.0
 50
270.0
 51
0.0
  0
ARC
  8
001
 62
               3
  5
4DE
 10
129.83984538709933
 20
344.06294936927998
 30
0.0
 40
1.0
 50
0.0000000000000127
 51
90.000000000000014
  0
LINE
  8
001
 62
               3
  5
4DF
 10
53.839845387099786
 20
345.56294936927998
 30
0.0
 11
53.839845387099786
 21
376.56294936927998
 31
0.0
  0
LINE
  8
001
 62
               3
  5
4E0
 10
55.705870790884319
 20
377.06294936927998
 30
0.0
 11
53.839845387099878
 21
376.56294936927998
 31
0.0
  0
LINE
  8
001
 62
               3
  5
4E1
 10
55.705870790884319
 20
345.06294936927998
 30
0.0
 11
53.839845387099878
 21
345.56294936927998
 31
0.0
  0
LINE
  8
001
 62
               3
  5
4E2
 10
129.83984538710524
 20
248.56294936927998
 30
0.0
 11
58.705870790889691
 21
248.56294936927998
 31
0.0
  0
LINE
  8
001
 62
               3
  5
4E3
 10
129.83984538710524
 20
273.56294936927998
 30
0.0
 11
58.705870790889691
 21
273.56294936927998
 31
0.0
  0
LINE
  8
001
 62
               3
  5
4E4
 10
56.839845387105242
 20
249.06294936927998
 30
0.0
 11
56.839845387105242
 21
273.06294936927998
 31
0.0
  0
LINE
  8
001
 62
               3
  5
4E5
 10
58.705870790889776
 20
273.56294936927998
 30
0.0
 11
56.839845387105335
 21
273.06294936927998
 31
0.0
  0
ARC
  8
001
 62
               3
  5
4E6
 10
129.83984538710524
 20
274.56294936927998
 30
0.0
 40
1.0
 50
270.0
 51
0.0
  0
LINE
  8
001
 62
               3
  5
4E7
 10
56.839845387105242
 20
249.06294936927998
 30
0.0
 11
58.705870790889691
 21
248.56294936927998
 31
0.0
  0
ARC
  8
001
 62
               3
  5
4E8
 10
129.83984538710524
 20
247.56294936927998
 30
0.0
 40
1.0
 50
0.0000000000000127
 51
90.000000000000014
  0
LINE
  8
001
 62
               3
  5
4E9
 10
43.705870790884546
 20
479.56294936927998
 30
0.0
 11
130.83984538709933
 21
479.56294936927998
 31
0.0
  0
LINE
  8
001
 62
               3
  5
4EA
 10
43.705870790884546
 20
442.56294936927998
 30
0.0
 11
130.83984538709933
 21
442.56294936927998
 31
0.0
  0
LINE
  8
001
  6
CENTER
  5
4EB
 10
236.8088733005855
 20
361.06294936927998
 30
0.0
 11
51.552591826379398
 21
361.06294936927998
 31
0.0
  0
LINE
  8
001
  6
CENTER
  5
4EC
 10
236.8088733005855
 20
261.06294936927998
 30
0.0
 11
54.937443776717259
 21
261.06294936927998
 31
0.0
  0
LINE
  8
001
  6
CENTER
  5
4ED
 10
236.8088733005855
 20
461.06294936927998
 30
0.0
 11
39.624133520004676
 21
461.06294936927998
 31
0.0
  0
LINE
  8
001
 62
               3
  5
4EE
 10
43.705870790884546
 20
479.56294936927998
 30
0.0
 11
43.705870790884546
 21
442.56294936927998
 31
0.0
  0
LINE
  8
001
 62
               3
  5
4EF
 10
55.705870790884319
 20
377.06294936927998
 30
0.0
 11
55.705870790884319
 21
345.06294936927998
 31
0.0
  0
LINE
  8
001
 62
               3
  5
4F0
 10
58.705870790889776
 20
273.56294936927998
 30
0.0
 11
58.705870790889776
 21
248.56294936927998
 31
0.0
  0
LINE
  8
001
 62
               3
  5
4F1
 10
103.83984538709933
 20
75.234590541097987
 30
0.0
 11
106.83984538709933
 21
75.234590541097987
 31
0.0
  0
LINE
  8
001
 62
               3
  5
4F2
 10
109.83984538709933
 20
74.034590541098169
 30
0.0
 11
106.83984538709933
 21
74.034590541098169
 31
0.0
  0
LINE
  8
001
 62
               3
  5
4F3
 10
129.83984538709933
 20
76.034590541098169
 30
0.0
 11
109.83984538709933
 21
76.034590541098169
 31
0.0
  0
LINE
  8
001
 62
               3
  5
4F4
 10
103.83984538709933
 20
75.234590541097987
 30
0.0
 11
103.33984538709933
 21
74.734590541097987
 31
0.0
  0
LINE
  8
001
 62
               3
  5
4F5
 10
103.83984538709933
 20
48.834590541097896
 30
0.0
 11
106.83984538709933
 21
48.834590541097896
 31
0.0
  0
LINE
  8
001
 62
               3
  5
4F6
 10
109.83984538709933
 20
50.034590541098169
 30
0.0
 11
106.83984538709933
 21
50.034590541098169
 31
0.0
  0
LINE
  8
001
 62
               3
  5
4F7
 10
129.83984538709933
 20
48.034590541098169
 30
0.0
 11
109.83984538709933
 21
48.034590541098169
 31
0.0
  0
LINE
  8
001
 62
               3
  5
4F8
 10
103.33984538709933
 20
49.334590541097896
 30
0.0
 11
103.83984538709933
 21
48.834590541097896
 31
0.0
  0
LINE
  8
001
 62
               3
  5
4F9
 10
107.83984538709933
 20
58.834590541097896
 30
0.0
 11
107.83984538709933
 21
65.234590541097873
 31
0.0
  0
LINE
  8
001
 62
               3
  5
4FA
 10
107.03984538709938
 20
66.034590541098169
 30
0.0
 11
103.33984538709933
 21
66.034590541098169
 31
0.0
  0
LINE
  8
001
 62
               3
  5
4FB
 10
107.03984538709938
 20
58.034590541098169
 30
0.0
 11
103.33984538709933
 21
58.034590541098169
 31
0.0
  0
ARC
  8
001
 62
               3
  5
4FC
 10
107.03984538709938
 20
65.234590541097987
 30
0.0
 40
0.8
 50
0.0
 51
90.0
  0
ARC
  8
001
 62
               3
  5
4FD
 10
107.03984538709938
 20
58.834590541097896
 30
0.0
 40
0.8
 50
270.0
 51
0.0
  0
LINE
  8
001
 62
               3
  5
4FE
 10
103.33984538709933
 20
49.334590541097896
 30
0.0
 11
103.33984538709933
 21
58.034590541097884
 31
0.0
  0
LINE
  8
001
 62
               3
  5
4FF
 10
103.33984538709933
 20
66.034590541098169
 30
0.0
 11
103.33984538709933
 21
74.734590541098157
 31
0.0
  0
ARC
  8
001
 62
               3
  5
500
 10
129.83984538709933
 20
77.034590541098169
 30
0.0
 40
1.0
 50
270.0
 51
0.0
  0
ARC
  8
001
 62
               3
  5
501
 10
129.83984538709933
 20
47.034590541098169
 30
0.0
 40
1.0
 50
0.0000000000000127
 51
90.000000000000014
  0
LINE
  8
001
 62
               3
  5
502
 10
109.83984538709933
 20
76.034590541098169
 30
0.0
 11
109.83984538709933
 21
48.034590541098169
 31
0.0
  0
LINE
  8
001
 62
               3
  5
503
 10
106.83984538709933
 20
66.034590541098169
 30
0.0
 11
106.83984538709933
 21
75.234590541098214
 31
0.0
  0
LINE
  8
001
 62
               3
  5
504
 10
106.83984538709933
 20
58.034590541098169
 30
0.0
 11
106.83984538709933
 21
48.834590541098123
 31
0.0
  0
LINE
  8
001
  6
PHANTOM
 62
               3
  5
505
 10
233.43389801594998
 20
25.034490541098194
 30
0.0
 11
190.43784538709929
 21
25.034490541098194
 31
0.0
  0
LINE
  8
001
  6
PHANTOM
 62
               3
  5
506
 10
184.83984538709933
 20
26.534490541098194
 30
0.0
 11
190.43784538709929
 21
25.034490541098194
 31
0.0
  0
LINE
  8
001
  6
PHANTOM
 62
               3
  5
507
 10
184.83984538709933
 20
97.534490541098194
 30
0.0
 11
184.83984538709933
 21
26.534490541098194
 31
0.0
  0
LINE
  8
001
  6
PHANTOM
 62
               3
  5
508
 10
184.83984538709933
 20
97.534490541098194
 30
0.0
 11
190.43784538709929
 21
99.034390541098219
 31
0.0
  0
LINE
  8
001
  6
PHANTOM
 62
               3
  5
509
 10
234.38622817279008
 20
99.034439810033291
 30
0.0
 11
190.43784538709932
 21
99.034390541098219
 31
0.0
  0
LINE
  8
001
 62
               3
  5
50A
 10
184.83984538709933
 20
37.034490541098421
 30
0.0
 11
168.3398377577048
 21
37.034490541098421
 31
0.0
  0
LINE
  8
001
 62
               3
  5
50B
 10
146.83984538709933
 20
38.534590541098169
 30
0.0
 11
130.83984538709933
 21
38.534590541098169
 31
0.0
  0
LINE
  8
001
 62
               3
  5
50C
 10
146.83984538709933
 20
85.534590541098169
 30
0.0
 11
130.83984538709933
 21
85.534590541098169
 31
0.0
  0
LINE
  8
001
 62
               3
  5
50D
 10
148.33984538709933
 20
85.534590541098169
 30
0.0
 11
147.33984538709933
 21
85.534590541098169
 31
0.0
  0
LINE
  8
001
 62
               3
  5
50E
 10
168.33984538709933
 20
92.034590541098169
 30
0.0
 11
148.33984538709933
 21
92.034590541098169
 31
0.0
  0
LINE
  8
001
 62
               3
  5
50F
 10
148.33984538709933
 20
38.534590541098169
 30
0.0
 11
147.33984538709933
 21
38.534590541098169
 31
0.0
  0
LINE
  8
001
 62
               3
  5
510
 10
168.33984538709933
 20
32.034590541098169
 30
0.0
 11
148.33984538709933
 21
32.034590541098169
 31
0.0
  0
LINE
  8
001
 62
               3
  5
511
 10
130.83984538709933
 20
85.534590541098169
 30
0.0
 11
130.83984538709933
 21
38.534590541098169
 31
0.0
  0
LINE
  8
001
 62
               3
  5
512
 10
146.83984538709933
 20
85.534590541098169
 30
0.0
 11
146.83984538709933
 21
38.534590541098169
 31
0.0
  0
LINE
  8
001
 62
               3
  5
513
 10
147.33984538709933
 20
38.534590541098169
 30
0.0
 11
147.33984538709933
 21
85.534590541098169
 31
0.0
  0
LINE
  8
001
 62
               3
  5
514
 10
146.83984538709933
 20
41.034590541098169
 30
0.0
 11
147.33984538709933
 21
41.034590541098169
 31
0.0
  0
LINE
  8
001
 62
               3
  5
515
 10
146.83984538709933
 20
83.034590541098169
 30
0.0
 11
147.33984538709933
 21
83.034590541098169
 31
0.0
  0
LINE
  8
001
 62
               3
  5
516
 10
148.33984538709933
 20
32.034590541098169
 30
0.0
 11
148.33984538709933
 21
92.034590541098169
 31
0.0
  0
LINE
  8
001
 62
               3
  5
517
 10
168.33984538709933
 20
32.034590541098169
 30
0.0
 11
168.33984538709933
 21
92.034590541098169
 31
0.0
  0
LINE
  8
001
 62
               3
  5
518
 10
184.83984538709933
 20
87.034390541098219
 30
0.0
 11
168.33984538709933
 21
87.034390541098219
 31
0.0
  0
LINE
  8
001
  6
DASHED
 62
               3
  5
519
 10
155.83984538709944
 20
32.034590541098282
 30
0.0
 11
155.83984538709939
 21
37.034590541098254
 31
0.0
  0
LINE
  8
001
  6
DASHED
 62
               3
  5
51A
 10
155.40484538709927
 20
32.034590541098282
 30
0.0
 11
155.40484538709927
 21
37.034590541098282
 31
0.0
  0
LINE
  8
001
  6
DASHED
 62
               3
  5
51B
 10
151.27484538709939
 20
37.034590541098282
 30
0.0
 11
151.27484538709939
 21
32.034590541098254
 31
0.0
  0
LINE
  8
001
  6
DASHED
 62
               3
  5
51C
 10
150.83984538709933
 20
37.034590541098282
 30
0.0
 11
150.83984538709933
 21
32.034590541098197
 31
0.0
  0
LINE
  8
001
  6
CENTER
  5
51D
 10
153.33984538709933
 20
37.572832140597825
 30
0.0
 11
153.33984538709933
 21
30.875362772956521
 31
0.0
  0
POLYLINE
  8
001
  6
PHANTOM
 62
               3
  5
51E
 66
               1
 10
0.0
 20
0.0
 30
0.0
  0
VERTEX
  8
001
  6
PHANTOM
 62
               3
  5
51F
 10
234.38623672016956
 20
99.034391607288057
 30
0.0
  0
VERTEX
  8
001
  6
PHANTOM
 62
               3
  5
520
 10
234.91082526248073
 20
96.096524811025247
 30
0.0
  0
VERTEX
  8
001
  6
PHANTOM
 62
               3
  5
521
 10
235.38759481095667
 20
93.158714438530112
 30
0.0
  0
VERTEX
  8
001
  6
PHANTOM
 62
               3
  5
522
 10
235.76872715633189
 20
90.221016912644586
 30
0.0
  0
VERTEX
  8
001
  6
PHANTOM
 62
               3
  5
523
 10
236.00640408934095
 20
87.283488656210594
 30
0.0
  0
VERTEX
  8
001
  6
PHANTOM
 62
               3
  5
524
 10
236.05280740071839
 20
84.346186092070084
 30
0.0
  0
VERTEX
  8
001
  6
PHANTOM
 62
               3
  5
525
 10
235.8251328704753
 20
80.82524781712705
 30
0.0
  0
VERTEX
  8
001
  6
PHANTOM
 62
               3
  5
526
 10
235.38735021786019
 20
77.303840933999624
 30
0.0
  0
VERTEX
  8
001
  6
PHANTOM
 62
               3
  5
527
 10
234.87293869329255
 20
73.781091420408671
 30
0.0
  0
VERTEX
  8
001
  6
PHANTOM
 62
               3
  5
528
 10
234.41537754719192
 20
70.256125254074988
 30
0.0
  0
VERTEX
  8
001
  6
PHANTOM
 62
               3
  5
529
 10
234.14814602997777
 20
66.728068412719409
 30
0.0
  0
VERTEX
  8
001
  6
PHANTOM
 62
               3
  5
52A
 10
234.18233549742789
 20
62.826679772220011
 30
0.0
  0
VERTEX
  8
001
  6
PHANTOM
 62
               3
  5
52B
 10
234.47696088534863
 20
58.92208044459764
 30
0.0
  0
VERTEX
  8
001
  6
PHANTOM
 62
               3
  5
52C
 10
234.89734114234986
 20
55.015897532215853
 30
0.0
  0
VERTEX
  8
001
  6
PHANTOM
 62
               3
  5
52D
 10
235.30879521704142
 20
51.109758137438178
 30
0.0
  0
VERTEX
  8
001
  6
PHANTOM
 62
               3
  5
52E
 10
235.57664205803323
 20
47.205289362628164
 30
0.0
  0
VERTEX
  8
001
  6
PHANTOM
 62
               3
  5
52F
 10
235.58048196914027
 20
42.766005782435812
 30
0.0
  0
VERTEX
  8
001
  6
PHANTOM
 62
               3
  5
530
 10
235.2960627338982
 20
38.330138079501033
 30
0.0
  0
VERTEX
  8
001
  6
PHANTOM
 62
               3
  5
531
 10
234.79544913889427
 20
33.896832284509429
 30
0.0
  0
VERTEX
  8
001
  6
PHANTOM
 62
               3
  5
532
 10
234.15070597071579
 20
29.465234428146612
 30
0.0
  0
VERTEX
  8
001
  6
PHANTOM
 62
               3
  5
533
 10
233.43389801595001
 20
25.034490541098187
 30
0.0
  0
SEQEND
  8
001
  5
534
  0
LINE
  8
001
  6
CENTER
  5
535
 10
236.8088733005855
 20
62.034590541098169
 30
0.0
 11
101.10195323622042
 21
62.034590541098169
 31
0.0
  0
LINE
  8
001
  6
PHANTOM
 62
               3
  5
536
 10
233.43389801594998
 20
125.03449054109819
 30
0.0
 11
190.43784538709929
 21
125.03449054109819
 31
0.0
  0
LINE
  8
001
  6
PHANTOM
 62
               3
  5
537
 10
184.83984538709933
 20
126.53449054109819
 30
0.0
 11
190.43784538709929
 21
125.03449054109819
 31
0.0
  0
LINE
  8
001
  6
PHANTOM
 62
               3
  5
538
 10
184.83984538709933
 20
197.53449054109819
 30
0.0
 11
184.83984538709933
 21
126.53449054109819
 31
0.0
  0
LINE
  8
001
  6
PHANTOM
 62
               3
  5
539
 10
184.83984538709933
 20
197.53449054109819
 30
0.0
 11
190.43784538709929
 21
199.03439054109822
 31
0.0
  0
LINE
  8
001
  6
PHANTOM
 62
               3
  5
53A
 10
234.38622817279008
 20
199.03443981003329
 30
0.0
 11
190.43784538709932
 21
199.03439054109822
 31
0.0
  0
LINE
  8
001
 62
               3
  5
53B
 10
184.83984538709933
 20
137.03449054109842
 30
0.0
 11
168.3398377577048
 21
137.03449054109842
 31
0.0
  0
LINE
  8
001
 62
               3
  5
53C
 10
146.83984538709933
 20
138.53459054109817
 30
0.0
 11
130.83984538709933
 21
138.53459054109817
 31
0.0
  0
LINE
  8
001
 62
               3
  5
53D
 10
146.83984538709933
 20
185.53459054109817
 30
0.0
 11
130.83984538709933
 21
185.53459054109817
 31
0.0
  0
LINE
  8
001
 62
               3
  5
53E
 10
148.33984538709933
 20
185.53459054109817
 30
0.0
 11
147.33984538709933
 21
185.53459054109817
 31
0.0
  0
LINE
  8
001
 62
               3
  5
53F
 10
168.33984538709933
 20
192.03459054109817
 30
0.0
 11
148.33984538709933
 21
192.03459054109817
 31
0.0
  0
LINE
  8
001
 62
               3
  5
540
 10
148.33984538709933
 20
138.53459054109817
 30
0.0
 11
147.33984538709933
 21
138.53459054109817
 31
0.0
  0
LINE
  8
001
 62
               3
  5
541
 10
168.33984538709933
 20
132.03459054109817
 30
0.0
 11
148.33984538709933
 21
132.03459054109817
 31
0.0
  0
LINE
  8
001
 62
               3
  5
542
 10
130.83984538709933
 20
185.53459054109817
 30
0.0
 11
130.83984538709933
 21
138.53459054109817
 31
0.0
  0
LINE
  8
001
 62
               3
  5
543
 10
146.83984538709933
 20
185.53459054109817
 30
0.0
 11
146.83984538709933
 21
138.53459054109817
 31
0.0
  0
LINE
  8
001
 62
               3
  5
544
 10
147.33984538709933
 20
138.53459054109817
 30
0.0
 11
147.33984538709933
 21
185.53459054109817
 31
0.0
  0
LINE
  8
001
 62
               3
  5
545
 10
146.83984538709933
 20
141.03459054109817
 30
0.0
 11
147.33984538709933
 21
141.03459054109817
 31
0.0
  0
LINE
  8
001
 62
               3
  5
546
 10
146.83984538709933
 20
183.03459054109817
 30
0.0
 11
147.33984538709933
 21
183.03459054109817
 31
0.0
  0
LINE
  8
001
 62
               3
  5
547
 10
148.33984538709933
 20
132.03459054109817
 30
0.0
 11
148.33984538709933
 21
192.03459054109817
 31
0.0
  0
LINE
  8
001
 62
               3
  5
548
 10
168.33984538709933
 20
132.03459054109817
 30
0.0
 11
168.33984538709933
 21
192.03459054109817
 31
0.0
  0
LINE
  8
001
 62
               3
  5
549
 10
184.83984538709933
 20
187.03439054109822
 30
0.0
 11
168.33984538709933
 21
187.03439054109822
 31
0.0
  0
LINE
  8
001
  6
DASHED
 62
               3
  5
54A
 10
155.83984538709944
 20
132.03459054109828
 30
0.0
 11
155.83984538709939
 21
137.03459054109825
 31
0.0
  0
LINE
  8
001
  6
DASHED
 62
               3
  5
54B
 10
155.40484538709927
 20
132.03459054109828
 30
0.0
 11
155.40484538709927
 21
137.03459054109828
 31
0.0
  0
LINE
  8
001
  6
DASHED
 62
               3
  5
54C
 10
151.27484538709939
 20
137.03459054109828
 30
0.0
 11
151.27484538709939
 21
132.03459054109825
 31
0.0
  0
LINE
  8
001
  6
DASHED
 62
               3
  5
54D
 10
150.83984538709933
 20
137.03459054109828
 30
0.0
 11
150.83984538709933
 21
132.0345905410982
 31
0.0
  0
LINE
  8
001
  6
CENTER
  5
54E
 10
153.33984538709933
 20
137.57283214059782
 30
0.0
 11
153.33984538709933
 21
130.87536277295652
 31
0.0
  0
POLYLINE
  8
001
  6
PHANTOM
 62
               3
  5
54F
 66
               1
 10
0.0
 20
0.0
 30
0.0
  0
VERTEX
  8
001
  6
PHANTOM
 62
               3
  5
550
 10
234.38623672016956
 20
199.03439160728806
 30
0.0
  0
VERTEX
  8
001
  6
PHANTOM
 62
               3
  5
551
 10
234.91082526248073
 20
196.09652481102523
 30
0.0
  0
VERTEX
  8
001
  6
PHANTOM
 62
               3
  5
552
 10
235.38759481095667
 20
193.1587144385301
 30
0.0
  0
VERTEX
  8
001
  6
PHANTOM
 62
               3
  5
553
 10
235.76872715633189
 20
190.22101691264459
 30
0.0
  0
VERTEX
  8
001
  6
PHANTOM
 62
               3
  5
554
 10
236.00640408934095
 20
187.28348865621061
 30
0.0
  0
VERTEX
  8
001
  6
PHANTOM
 62
               3
  5
555
 10
236.05280740071839
 20
184.34618609207007
 30
0.0
  0
VERTEX
  8
001
  6
PHANTOM
 62
               3
  5
556
 10
235.8251328704753
 20
180.82524781712704
 30
0.0
  0
VERTEX
  8
001
  6
PHANTOM
 62
               3
  5
557
 10
235.38735021786019
 20
177.30384093399962
 30
0.0
  0
VERTEX
  8
001
  6
PHANTOM
 62
               3
  5
558
 10
234.87293869329255
 20
173.78109142040864
 30
0.0
  0
VERTEX
  8
001
  6
PHANTOM
 62
               3
  5
559
 10
234.41537754719192
 20
170.25612525407496
 30
0.0
  0
VERTEX
  8
001
  6
PHANTOM
 62
               3
  5
55A
 10
234.14814602997777
 20
166.72806841271941
 30
0.0
  0
VERTEX
  8
001
  6
PHANTOM
 62
               3
  5
55B
 10
234.18233549742789
 20
162.82667977222002
 30
0.0
  0
VERTEX
  8
001
  6
PHANTOM
 62
               3
  5
55C
 10
234.47696088534863
 20
158.92208044459767
 30
0.0
  0
VERTEX
  8
001
  6
PHANTOM
 62
               3
  5
55D
 10
234.89734114234986
 20
155.01589753221586
 30
0.0
  0
VERTEX
  8
001
  6
PHANTOM
 62
               3
  5
55E
 10
235.30879521704142
 20
151.10975813743821
 30
0.0
  0
VERTEX
  8
001
  6
PHANTOM
 62
               3
  5
55F
 10
235.57664205803323
 20
147.20528936262818
 30
0.0
  0
VERTEX
  8
001
  6
PHANTOM
 62
               3
  5
560
 10
235.58048196914027
 20
142.7660057824358
 30
0.0
  0
VERTEX
  8
001
  6
PHANTOM
 62
               3
  5
561
 10
235.2960627338982
 20
138.33013807950101
 30
0.0
  0
VERTEX
  8
001
  6
PHANTOM
 62
               3
  5
562
 10
234.79544913889427
 20
133.8968322845094
 30
0.0
  0
VERTEX
  8
001
  6
PHANTOM
 62
               3
  5
563
 10
234.15070597071579
 20
129.4652344281466
 30
0.0
  0
VERTEX
  8
001
  6
PHANTOM
 62
               3
  5
564
 10
233.43389801595001
 20
125.03449054109817
 30
0.0
  0
SEQEND
  8
001
  5
565
  0
ARC
  8
001
 62
               3
  5
566
 10
129.83984538709933
 20
179.2345905410981
 30
0.0
 40
1.0
 50
270.0
 51
0.0
  0
ARC
  8
001
 62
               3
  5
567
 10
129.83984538709933
 20
144.83459054109801
 30
0.0
 40
1.0
 50
0.0
 51
90.0
  0
LINE
  8
001
 62
               3
  5
568
 10
85.839845387099615
 20
178.2345905410981
 30
0.0
 11
129.83984538709933
 21
178.2345905410981
 31
0.0
  0
LINE
  8
001
 62
               3
  5
569
 10
85.839845387099615
 20
177.03459054109817
 30
0.0
 11
82.839845387099615
 21
177.03459054109817
 31
0.0
  0
LINE
  8
001
 62
               3
  5
56A
 10
79.839845387099615
 20
178.23459054109799
 30
0.0
 11
82.839845387099615
 21
178.23459054109799
 31
0.0
  0
LINE
  8
001
 62
               3
  5
56B
 10
79.839845387099615
 20
178.23459054109799
 30
0.0
 11
79.339845387099615
 21
177.73459054109799
 31
0.0
  0
LINE
  8
001
 62
               3
  5
56C
 10
83.839845387099615
 20
157.8345905410979
 30
0.0
 11
83.839845387099615
 21
166.23459054109787
 31
0.0
  0
LINE
  8
001
 62
               3
  5
56D
 10
83.03984538709966
 20
167.03459054109817
 30
0.0
 11
79.339845387099615
 21
167.03459054109817
 31
0.0
  0
LINE
  8
001
 62
               3
  5
56E
 10
83.03984538709966
 20
157.03459054109805
 30
0.0
 11
79.339845387099615
 21
157.03459054109805
 31
0.0
  0
ARC
  8
001
 62
               3
  5
56F
 10
83.03984538709966
 20
166.23459054109799
 30
0.0
 40
0.8
 50
0.0
 51
90.0
  0
ARC
  8
001
 62
               3
  5
570
 10
83.03984538709966
 20
157.8345905410979
 30
0.0
 40
0.8
 50
270.0
 51
0.0
  0
LINE
  8
001
 62
               3
  5
571
 10
79.339845387099615
 20
177.73459054109799
 30
0.0
 11
79.339845387099615
 21
167.034590541098
 31
0.0
  0
LINE
  8
001
 62
               3
  5
572
 10
79.339845387099615
 20
146.33459054109778
 30
0.0
 11
79.339845387099615
 21
157.03459054109777
 31
0.0
  0
LINE
  8
001
 62
               3
  5
573
 10
85.839845387099615
 20
145.83459054109801
 30
0.0
 11
129.83984538709933
 21
145.83459054109801
 31
0.0
  0
LINE
  8
001
 62
               3
  5
574
 10
85.839845387099615
 20
147.03459054109805
 30
0.0
 11
82.839845387099615
 21
147.03459054109805
 31
0.0
  0
LINE
  8
001
 62
               3
  5
575
 10
79.839845387099615
 20
145.83459054109778
 30
0.0
 11
82.839845387099615
 21
145.83459054109778
 31
0.0
  0
LINE
  8
001
 62
               3
  5
576
 10
79.339845387099615
 20
146.33459054109778
 30
0.0
 11
79.839845387099615
 21
145.83459054109778
 31
0.0
  0
LINE
  8
001
  6
CENTER
  5
577
 10
236.8088733005855
 20
162.03459054109817
 30
0.0
 11
78.059406755934333
 21
162.03459054109817
 31
0.0
  0
LINE
  8
001
 62
               3
  5
578
 10
82.839845387099615
 20
167.03459054109817
 30
0.0
 11
82.839845387099615
 21
178.23459054109816
 31
0.0
  0
LINE
  8
001
 62
               3
  5
579
 10
82.839845387099615
 20
157.03459054109805
 30
0.0
 11
82.839845387099615
 21
145.83459054109807
 31
0.0
  0
LINE
  8
001
 62
               3
  5
57A
 10
85.839845387099615
 20
145.83459054109801
 30
0.0
 11
85.839845387099615
 21
178.2345905410981
 31
0.0
  0
LINE
  8
001
  6
PHANTOM
 62
               3
  5
57B
 10
184.83984538709933
 20
612.34883017548327
 30
0.0
 11
184.83984538709933
 21
541.34883017548327
 31
0.0
  0
LINE
  8
001
  6
PHANTOM
 62
               3
  5
57C
 10
184.83984538709933
 20
541.34883017548327
 30
0.0
 11
190.43784538709934
 21
539.84883017548327
 31
0.0
  0
LINE
  8
001
  6
PHANTOM
 62
               3
  5
57D
 10
232.5859468652354
 20
539.84880655013069
 30
0.0
 11
190.43784538709934
 21
539.84883017548327
 31
0.0
  0
LINE
  8
001
 62
               3
  5
57E
 10
184.83984538709922
 20
551.84883017548304
 30
0.0
 11
168.33984538709936
 21
551.84883017548304
 31
0.0
  0
LINE
  8
001
 62
               3
  5
57F
 10
184.83984538709922
 20
601.8488301754835
 30
0.0
 11
168.33984538709936
 21
601.8488301754835
 31
0.0
  0
LINE
  8
001
  6
CENTER
  5
580
 10
83.063506437953549
 20
576.84883017548327
 30
0.0
 11
234.95551960924098
 21
576.84883017548327
 31
0.0
  0
POLYLINE
  8
001
  6
PHANTOM
 62
               3
  5
581
 66
               1
 10
0.0
 20
0.0
 30
0.0
  0
VERTEX
  8
001
  6
PHANTOM
 62
               3
  5
582
 10
231.79609243720117
 20
613.84883017562959
 30
0.0
  0
VERTEX
  8
001
  6
PHANTOM
 62
               3
  5
583
 10
232.1029829746505
 20
611.72658922798519
 30
0.0
  0
VERTEX
  8
001
  6
PHANTOM
 62
               3
  5
584
 10
232.38580776406468
 20
609.6040394068558
 30
0.0
  0
VERTEX
  8
001
  6
PHANTOM
 62
               3
  5
585
 10
232.62050132029614
 20
607.48087184213045
 30
0.0
  0
VERTEX
  8
001
  6
PHANTOM
 62
               3
  5
586
 10
232.78299815819739
 20
605.35677766369827
 30
0.0
  0
VERTEX
  8
001
  6
PHANTOM
 62
               3
  5
587
 10
232.84923279262082
 20
603.23144800144826
 30
0.0
  0
VERTEX
  8
001
  6
PHANTOM
 62
               3
  5
588
 10
232.75243912558719
 20
600.12750527342143
 30
0.0
  0
VERTEX
  8
001
  6
PHANTOM
 62
               3
  5
589
 10
232.4990718942413
 20
597.02121066549489
 30
0.0
  0
VERTEX
  8
001
  6
PHANTOM
 62
               3
  5
58A
 10
232.1887871555812
 20
593.91350089432433
 30
0.0
  0
VERTEX
  8
001
  6
PHANTOM
 62
               3
  5
58B
 10
231.92124096660498
 20
590.80531267656568
 30
0.0
  0
VERTEX
  8
001
  6
PHANTOM
 62
               3
  5
58C
 10
231.79608938431073
 20
587.69758272887452
 30
0.0
  0
VERTEX
  8
001
  6
PHANTOM
 62
               3
  5
58D
 10
231.90898216824789
 20
584.16817993699499
 30
0.0
  0
VERTEX
  8
001
  6
PHANTOM
 62
               3
  5
58E
 10
232.21569522320237
 20
580.64002057749747
 30
0.0
  0
VERTEX
  8
001
  6
PHANTOM
 62
               3
  5
58F
 10
232.59760481222702
 20
577.11254740502022
 30
0.0
  0
VERTEX
  8
001
  6
PHANTOM
 62
               3
  5
590
 10
232.93608719837474
 20
573.58520317420175
 30
0.0
  0
VERTEX
  8
001
  6
PHANTOM
 62
               3
  5
591
 10
233.11251864469833
 20
570.05743063968043
 30
0.0
  0
VERTEX
  8
001
  6
PHANTOM
 62
               3
  5
592
 10
233.0553704053051
 20
566.74198907538982
 30
0.0
  0
VERTEX
  8
001
  6
PHANTOM
 62
               3
  5
593
 10
232.83596098457224
 20
563.42562244231658
 30
0.0
  0
VERTEX
  8
001
  6
PHANTOM
 62
               3
  5
594
 10
232.53981134270501
 20
560.10827572330038
 30
0.0
  0
VERTEX
  8
001
  6
PHANTOM
 62
               3
  5
595
 10
232.25244243990861
 20
556.78989390118056
 30
0.0
  0
VERTEX
  8
001
  6
PHANTOM
 62
               3
  5
596
 10
232.05937523638826
 20
553.47042195879669
 30
0.0
  0
VERTEX
  8
001
  6
PHANTOM
 62
               3
  5
597
 10
232.01952920509723
 20
550.74702791416314
 30
0.0
  0
VERTEX
  8
001
  6
PHANTOM
 62
               3
  5
598
 10
232.07645645798388
 20
548.02301760287139
 30
0.0
  0
VERTEX
  8
001
  6
PHANTOM
 62
               3
  5
599
 10
232.2059637254591
 20
545.29854509125835
 30
0.0
  0
VERTEX
  8
001
  6
PHANTOM
 62
               3
  5
59A
 10
232.38385773793388
 20
542.5737644456608
 30
0.0
  0
VERTEX
  8
001
  6
PHANTOM
 62
               3
  5
59B
 10
232.58594522581913
 20
539.84882973241577
 30
0.0
  0
SEQEND
  8
001
  5
59C
  0
LINE
  8
001
  6
DASHED
 62
               3
  5
59D
 10
150.83984538709936
 20
551.84883017548327
 30
0.0
 11
150.83984538709936
 21
546.84883017548327
 31
0.0
  0
LINE
  8
001
  6
DASHED
 62
               3
  5
59E
 10
151.27484538709942
 20
551.84883017548327
 30
0.0
 11
151.27484538709942
 21
546.84883017548339
 31
0.0
  0
LINE
  8
001
  6
DASHED
 62
               3
  5
59F
 10
155.83984538709947
 20
546.84883017548339
 30
0.0
 11
155.83984538709942
 21
551.84883017548339
 31
0.0
  0
LINE
  8
001
  6
DASHED
 62
               3
  5
5A0
 10
155.4048453870993
 20
546.84883017548339
 30
0.0
 11
155.4048453870993
 21
551.84883017548339
 31
0.0
  0
LINE
  8
001
  6
CENTER
  5
5A1
 10
153.33984538709936
 20
551.84883017548327
 30
0.0
 11
153.33984538709936
 21
545.68960240734168
 31
0.0
  0
LINE
  8
001
 62
               3
  5
5A2
 10
148.33984538709936
 20
606.84883017548327
 30
0.0
 11
148.33984538709936
 21
546.84883017548327
 31
0.0
  0
LINE
  8
001
 62
               3
  5
5A3
 10
147.33984538709936
 20
600.34883017548327
 30
0.0
 11
147.33984538709936
 21
553.34883017548327
 31
0.0
  0
LINE
  8
001
 62
               3
  5
5A4
 10
146.83984538709936
 20
553.34883017548327
 30
0.0
 11
146.83984538709936
 21
600.34883017548327
 31
0.0
  0
LINE
  8
001
 62
               3
  5
5A5
 10
111.33984538709936
 20
564.34883017548327
 30
0.0
 11
111.33984538709936
 21
589.34883017548327
 31
0.0
  0
LINE
  8
001
 62
               3
  5
5A6
 10
168.33984538709936
 20
606.84883017548327
 30
0.0
 11
168.33984538709936
 21
546.84883017548327
 31
0.0
  0
LINE
  8
001
 62
               3
  5
5A7
 10
146.83984538709936
 20
555.84883017548327
 30
0.0
 11
147.33984538709936
 21
555.84883017548327
 31
0.0
  0
LINE
  8
001
 62
               3
  5
5A8
 10
130.83984538709936
 20
553.34883017548327
 30
0.0
 11
130.83984538709936
 21
600.34883017548327
 31
0.0
  0
LINE
  8
001
 62
               3
  5
5A9
 10
146.83984538709936
 20
597.84883017548327
 30
0.0
 11
147.33984538709936
 21
597.84883017548327
 31
0.0
  0
LINE
  8
001
 62
               3
  5
5AA
 10
146.83984538709936
 20
553.34883017548327
 30
0.0
 11
130.83984538709936
 21
553.34883017548327
 31
0.0
  0
LINE
  8
001
 62
               3
  5
5AB
 10
146.83984538709936
 20
600.34883017548327
 30
0.0
 11
130.83984538709936
 21
600.34883017548327
 31
0.0
  0
LINE
  8
001
 62
               3
  5
5AC
 10
148.33984538709936
 20
600.34883017548327
 30
0.0
 11
147.33984538709936
 21
600.34883017548327
 31
0.0
  0
LINE
  8
001
 62
               3
  5
5AD
 10
168.33984538709936
 20
606.84883017548327
 30
0.0
 11
148.33984538709936
 21
606.84883017548327
 31
0.0
  0
LINE
  8
001
 62
               3
  5
5AE
 10
148.33984538709936
 20
553.34883017548327
 30
0.0
 11
147.33984538709936
 21
553.34883017548327
 31
0.0
  0
LINE
  8
001
 62
               3
  5
5AF
 10
168.33984538709936
 20
546.84883017548327
 30
0.0
 11
148.33984538709936
 21
546.84883017548327
 31
0.0
  0
LINE
  8
001
 62
               3
  5
5B0
 10
118.33984538709936
 20
591.34883017548327
 30
0.0
 11
129.83984538709936
 21
591.34883017548327
 31
0.0
  0
ARC
  8
001
 62
               3
  5
5B1
 10
129.83984538709936
 20
592.34883017548327
 30
0.0
 40
1.0
 50
270.0
 51
0.0
  0
LINE
  8
001
 62
               3
  5
5B2
 10
117.83984538709959
 20
590.84883017548327
 30
0.0
 11
118.33984538709952
 21
591.34883017548316
 31
0.0
  0
ARC
  8
001
 62
               3
  5
5B3
 10
115.90335371399581
 20
591.34883017548327
 30
0.0
 40
2.0
 50
270.0
 51
345.52248781407252
  0
LINE
  8
001
  6
DASHED
 62
               3
  5
5B4
 10
127.83984538709936
 20
570.09883017548327
 30
0.0
 11
127.83984538709936
 21
583.59883017548327
 31
0.0
  0
LINE
  8
001
  6
DASHED
 62
               3
  5
5B5
 10
120.96479698484794
 20
583.59883017548327
 30
0.0
 11
127.83984538709926
 21
583.59883017548327
 31
0.0
  0
LINE
  8
001
  6
DASHED
 62
               3
  5
5B6
 10
127.83984538709936
 20
583.59883017548327
 30
0.0
 11
131.73695970412933
 21
576.84883017548327
 31
0.0
  0
LINE
  8
001
  6
DASHED
 62
               3
  5
5B7
 10
127.83984538709936
 20
570.09883017548327
 30
0.0
 11
120.96479698484794
 21
570.09883017548327
 31
0.0
  0
LINE
  8
001
  6
DASHED
 62
               3
  5
5B8
 10
127.83984538709936
 20
570.09883017548327
 30
0.0
 11
131.73695970412933
 21
576.84883017548327
 31
0.0
  0
LINE
  8
001
 62
               3
  5
5B9
 10
118.33984538709936
 20
562.34883017548327
 30
0.0
 11
129.83984538709936
 21
562.34883017548327
 31
0.0
  0
ARC
  8
001
 62
               3
  5
5BA
 10
129.83984538709936
 20
561.34883017548327
 30
0.0
 40
1.0
 50
0.0000000000000127
 51
90.000000000000014
  0
LINE
  8
001
 62
               3
  5
5BB
 10
117.83984538709936
 20
562.84883017548327
 30
0.0
 11
118.3398453870994
 21
562.34883017548327
 31
0.0
  0
ARC
  8
001
 62
               3
  5
5BC
 10
115.90335371399581
 20
562.34883017548327
 30
0.0
 40
2.0
 50
14.477512185927504
 51
90.000000000000014
  0
LINE
  8
001
 62
               3
  5
5BD
 10
86.339845387099359
 20
562.84883017548327
 30
0.0
 11
86.339845387099359
 21
590.84883017548327
 31
0.0
  0
LINE
  8
001
 62
               3
  5
5BE
 10
105.33984538709936
 20
560.84883017548327
 30
0.0
 11
105.33984538709936
 21
592.84883017548327
 31
0.0
  0
LINE
  8
001
 62
               3
  5
5BF
 10
88.071896194668426
 20
593.84883017548327
 30
0.0
 11
104.33984538709936
 21
593.84883017548327
 31
0.0
  0
LINE
  8
001
 62
               3
  5
5C0
 10
88.071896194668426
 20
559.84883017548327
 30
0.0
 11
104.33984538709936
 21
559.84883017548327
 31
0.0
  0
LINE
  8
001
 62
               3
  5
5C1
 10
88.071896194668426
 20
585.83921123225014
 30
0.0
 11
98.339845387099359
 21
585.83921123225014
 31
0.0
  0
LINE
  8
001
 62
               3
  5
5C2
 10
88.071896194668426
 20
584.84883017548327
 30
0.0
 11
98.339845387099359
 21
584.84883017548327
 31
0.0
  0
LINE
  8
001
 62
               3
  5
5C3
 10
88.071896194668426
 20
568.84883017548327
 30
0.0
 11
98.339845387099359
 21
568.84883017548327
 31
0.0
  0
LINE
  8
001
 62
               3
  5
5C4
 10
88.071896194668426
 20
567.85844911871663
 30
0.0
 11
98.339845387099359
 21
567.85844911871663
 31
0.0
  0
LINE
  8
001
 62
               3
  5
5C5
 10
86.339845387099359
 20
590.84883017548327
 30
0.0
 11
88.071896194668426
 21
593.84883017548327
 31
0.0
  0
LINE
  8
001
 62
               3
  5
5C6
 10
86.339845387099359
 20
562.84883017548327
 30
0.0
 11
88.071896194668426
 21
559.84883017548327
 31
0.0
  0
LINE
  8
001
 62
               3
  5
5C7
 10
98.339845387099359
 20
559.84883017548327
 30
0.0
 11
98.339845387099359
 21
567.85844911871663
 31
0.0
  0
LINE
  8
001
 62
               3
  5
5C8
 10
98.339845387099359
 20
568.84883017548327
 30
0.0
 11
98.339845387099359
 21
584.84883017548327
 31
0.0
  0
LINE
  8
001
 62
               3
  5
5C9
 10
98.339845387099359
 20
585.83921123225014
 30
0.0
 11
98.339845387099359
 21
593.84883017548327
 31
0.0
  0
LINE
  8
001
 62
               3
  5
5CA
 10
88.071896194668426
 20
585.83921123225014
 30
0.0
 11
88.071896194668426
 21
584.84883017548327
 31
0.0
  0
LINE
  8
001
 62
               3
  5
5CB
 10
88.071896194668426
 20
568.84883017548327
 30
0.0
 11
88.071896194667971
 21
567.85844911871663
 31
0.0
  0
LINE
  8
001
 62
               3
  5
5CC
 10
104.33984538709936
 20
593.84883017548327
 30
0.0
 11
105.33984538709936
 21
592.84883017548327
 31
0.0
  0
LINE
  8
001
 62
               3
  5
5CD
 10
105.33984538709936
 20
560.84883017548327
 30
0.0
 11
104.33984538709936
 21
559.84883017548327
 31
0.0
  0
LINE
  8
001
 62
               3
  5
5CE
 10
104.33984538709936
 20
593.84883017548327
 30
0.0
 11
104.33984538709936
 21
559.84883017548327
 31
0.0
  0
LINE
  8
001
 62
               3
  5
5CF
 10
98.339845387099359
 20
593.84883017548327
 30
0.0
 11
88.071896194668426
 21
585.83921123225014
 31
0.0
  0
LINE
  8
001
 62
               3
  5
5D0
 10
88.071896194668426
 20
593.84883017548327
 30
0.0
 11
98.339845387099359
 21
585.83921123225014
 31
0.0
  0
LINE
  8
001
 62
               3
  5
5D1
 10
98.339845387099359
 20
584.84883017548327
 30
0.0
 11
88.071896194668426
 21
568.84883017548327
 31
0.0
  0
LINE
  8
001
 62
               3
  5
5D2
 10
88.071896194668426
 20
584.84883017548327
 30
0.0
 11
98.339845387099359
 21
568.84883017548327
 31
0.0
  0
LINE
  8
001
 62
               3
  5
5D3
 10
98.339845387099359
 20
567.85844911871641
 30
0.0
 11
88.071896194668426
 21
559.84883017548327
 31
0.0
  0
LINE
  8
001
 62
               3
  5
5D4
 10
88.071896194667971
 20
567.85844911871663
 30
0.0
 11
98.339845387099359
 21
559.84883017548327
 31
0.0
  0
ARC
  8
001
 62
               3
  5
5D5
 10
105.68107940495136
 20
576.84883017548327
 30
0.0
 40
19.341234017851722
 50
155.56730232054483
 51
204.43269767945517
  0
ARC
  8
001
 62
               3
  5
5D6
 10
94.450543362477021
 20
590.84883017548327
 30
0.0
 40
8.1106979753779402
 50
180.0
 51
218.14514360912378
  0
ARC
  8
001
 62
               3
  5
5D7
 10
94.450543362477021
 20
562.84883017548327
 30
0.0
 40
8.1106979753778887
 50
141.85485639087653
 51
180.0
  0
ARC
  8
001
 62
               3
  5
5D8
 10
83.339845387099814
 20
576.84883017548327
 30
0.0
 40
16.999999999999545
 50
331.92751306414669
 51
28.072486935853323
  0
ARC
  8
001
 62
               3
  5
5D9
 10
95.330226443865996
 20
589.84402070386659
 30
0.0
 40
5.0096212518930203
 50
306.92490429281207
 51
53.075095707186641
  0
ARC
  8
001
 62
               3
  5
5DA
 10
95.330226443865996
 20
563.85363964709995
 30
0.0
 40
5.0096212518930319
 50
306.92490429281247
 51
53.075095707187558
  0
LINE
  8
001
 62
               3
  5
5DB
 10
105.33984538709936
 20
589.34883017548327
 30
0.0
 11
115.90335371399581
 21
589.34883017548327
 31
0.0
  0
LINE
  8
001
 62
               3
  5
5DC
 10
105.33984538709936
 20
588.59883017548327
 30
0.0
 11
111.33984538709936
 21
588.59883017548327
 31
0.0
  0
LINE
  8
001
 62
               3
  5
5DD
 10
105.33984538709936
 20
565.09883017548327
 30
0.0
 11
111.33984538709936
 21
565.09883017548327
 31
0.0
  0
LINE
  8
001
 62
               3
  5
5DE
 10
105.33984538709936
 20
564.34883017548327
 30
0.0
 11
115.9033537139957
 21
564.34883017548327
 31
0.0
  0
LINE
  8
001
 62
               3
  5
5DF
 10
115.83984538709936
 20
584.9882404735331
 30
0.0
 11
129.83984538709936
 21
584.9882404735331
 31
0.0
  0
LINE
  8
001
 62
               3
  5
5E0
 10
115.83984538709936
 20
584.9882404735331
 30
0.0
 11
115.83984538709936
 21
568.70941987743345
 31
0.0
  0
LINE
  8
001
 62
               3
  5
5E1
 10
115.83984538709936
 20
568.70941987743345
 30
0.0
 11
129.83984538709936
 21
568.70941987743345
 31
0.0
  0
LINE
  8
001
 62
               3
  5
5E2
 10
129.83984538709936
 20
584.9882404735331
 30
0.0
 11
129.83984538709936
 21
568.70941987743345
 31
0.0
  0
LINE
  8
001
 62
               3
  5
5E3
 10
118.33984538709959
 20
584.9882404735331
 30
0.0
 11
118.33984538709959
 21
591.34883017548327
 31
0.0
  0
LINE
  8
001
 62
               3
  5
5E4
 10
118.33984538709959
 20
568.70941987743345
 30
0.0
 11
118.33984538709959
 21
562.34883017548327
 31
0.0
  0
LINE
  8
001
 62
               3
  5
5E5
 10
129.83984538709936
 20
584.9882404735331
 30
0.0
 11
115.83984538709936
 21
568.70941987743345
 31
0.0
  0
LINE
  8
001
 62
               3
  5
5E6
 10
115.83984538709936
 20
584.9882404735331
 30
0.0
 11
129.83984538709936
 21
568.70941987743345
 31
0.0
  0
LINE
  8
001
  6
PHANTOM
 62
               3
  5
5E7
 10
184.83984538709933
 20
612.34883017548327
 30
0.0
 11
190.43784538709934
 21
613.84883017548327
 31
0.0
  0
LINE
  8
001
  6
PHANTOM
 62
               3
  5
5E8
 10
231.79608910414245
 20
613.84885335809543
 30
0.0
 11
190.43784538709934
 21
613.84883017548327
 31
0.0
  0
TEXT
  8
001
  5
5E9
 10
60.011891257230594
 20
277.70446724081614
 30
0.0
 40
10.0
  1
BILZ16
 41
0.5624999296875088
  0
TEXT
  8
001
  5
5EA
 10
56.1085444183825
 20
381.47953142128114
 30
0.0
 40
10.0
  1
BILZ20
 41
0.5454545454545454
  0
TEXT
  8
001
  5
5EB
 10
44.650456377787854
 20
484.20718820185243
 30
0.0
 40
10.0
  1
BILZ25
 41
0.5294117335640156
  0
TEXT
  8
001
  5
5EC
 10
80.425123068576852
 20
183.18892853337854
 30
0.0
 40
10.0
  1
KH-22A
 41
0.5
  0
TEXT
  8
001
  5
5ED
 10
95.372969637410563
 20
84.400753817173722
 30
0.0
 40
10.0
  1
KH-16A
 41
0.5294117335640156
  0
TEXT
  8
001
  5
5EE
 10
86.997922369061754
 20
599.24630557631235
 30
0.0
 40
10.0
  1
ER20
 41
0.5217391758034066
  0
LINE
  8
001
  6
PHANTOM
  5
5EF
 10
184.83984538709933
 20
742.34883017548327
 30
0.0
 11
184.83984538709933
 21
811.25950396906546
 31
0.0
  0
LINE
  8
001
  6
PHANTOM
 62
               3
  5
5F0
 10
184.83984538709933
 20
742.34883017548327
 30
0.0
 11
184.83984538709933
 21
671.34883017548327
 31
0.0
  0
LINE
  8
001
 62
               3
  5
5F1
 10
159.5718453870993
 20
681.84883017548304
 30
0.0
 11
184.83984538709925
 21
681.84883017548304
 31
0.0
  0
LINE
  8
001
 62
               3
  5
5F2
 10
159.5718453870993
 20
731.8488301754835
 30
0.0
 11
184.83984538709925
 21
731.8488301754835
 31
0.0
  0
LINE
  8
001
  6
PHANTOM
 62
               3
  5
5F3
 10
184.83984538709933
 20
742.34883017548327
 30
0.0
 11
190.43784538709934
 21
743.84883017548327
 31
0.0
  0
LINE
  8
001
  6
PHANTOM
 62
               3
  5
5F4
 10
231.79608910414242
 20
743.84885335809554
 30
0.0
 11
190.43784538709929
 21
743.84883017548339
 31
0.0
  0
POLYLINE
  8
001
  6
PHANTOM
 62
               3
  5
5F5
 66
               1
 10
0.0
 20
0.0
 30
0.0
  0
VERTEX
  8
001
  6
PHANTOM
 62
               3
  5
5F6
 10
231.7960924372012
 20
743.8488301756297
 30
0.0
  0
VERTEX
  8
001
  6
PHANTOM
 62
               3
  5
5F7
 10
232.10298297465053
 20
741.7265892279853
 30
0.0
  0
VERTEX
  8
001
  6
PHANTOM
 62
               3
  5
5F8
 10
232.38580776406471
 20
739.60403940685592
 30
0.0
  0
VERTEX
  8
001
  6
PHANTOM
 62
               3
  5
5F9
 10
232.62050132029617
 20
737.48087184213057
 30
0.0
  0
VERTEX
  8
001
  6
PHANTOM
 62
               3
  5
5FA
 10
232.78299815819742
 20
735.35677766369838
 30
0.0
  0
VERTEX
  8
001
  6
PHANTOM
 62
               3
  5
5FB
 10
232.84923279262085
 20
733.23144800144837
 30
0.0
  0
VERTEX
  8
001
  6
PHANTOM
 62
               3
  5
5FC
 10
232.75243912558722
 20
730.12750527342155
 30
0.0
  0
VERTEX
  8
001
  6
PHANTOM
 62
               3
  5
5FD
 10
232.49907189424133
 20
727.021210665495
 30
0.0
  0
VERTEX
  8
001
  6
PHANTOM
 62
               3
  5
5FE
 10
232.18878715558122
 20
723.91350089432444
 30
0.0
  0
VERTEX
  8
001
  6
PHANTOM
 62
               3
  5
5FF
 10
231.92124096660501
 20
720.80531267656579
 30
0.0
  0
VERTEX
  8
001
  6
PHANTOM
 62
               3
  5
600
 10
231.79608938431076
 20
717.69758272887464
 30
0.0
  0
VERTEX
  8
001
  6
PHANTOM
 62
               3
  5
601
 10
231.90898216824792
 20
714.1681799369951
 30
0.0
  0
VERTEX
  8
001
  6
PHANTOM
 62
               3
  5
602
 10
232.2156952232024
 20
710.64002057749758
 30
0.0
  0
VERTEX
  8
001
  6
PHANTOM
 62
               3
  5
603
 10
232.59760481222705
 20
707.11254740502034
 30
0.0
  0
VERTEX
  8
001
  6
PHANTOM
 62
               3
  5
604
 10
232.93608719837476
 20
703.58520317420187
 30
0.0
  0
VERTEX
  8
001
  6
PHANTOM
 62
               3
  5
605
 10
233.11251864469835
 20
700.05743063968066
 30
0.0
  0
VERTEX
  8
001
  6
PHANTOM
 62
               3
  5
606
 10
233.05537040530513
 20
696.74198907538994
 30
0.0
  0
VERTEX
  8
001
  6
PHANTOM
 62
               3
  5
607
 10
232.83596098457227
 20
693.42562244231669
 30
0.0
  0
VERTEX
  8
001
  6
PHANTOM
 62
               3
  5
608
 10
232.53981134270504
 20
690.10827572330049
 30
0.0
  0
VERTEX
  8
001
  6
PHANTOM
 62
               3
  5
609
 10
232.25244243990863
 20
686.78989390118068
 30
0.0
  0
VERTEX
  8
001
  6
PHANTOM
 62
               3
  5
60A
 10
232.05937523638829
 20
683.47042195879681
 30
0.0
  0
VERTEX
  8
001
  6
PHANTOM
 62
               3
  5
60B
 10
232.01952920509726
 20
680.74702791416325
 30
0.0
  0
VERTEX
  8
001
  6
PHANTOM
 62
               3
  5
60C
 10
232.07645645798391
 20
678.02301760287151
 30
0.0
  0
VERTEX
  8
001
  6
PHANTOM
 62
               3
  5
60D
 10
232.20596372545913
 20
675.29854509125846
 30
0.0
  0
VERTEX
  8
001
  6
PHANTOM
 62
               3
  5
60E
 10
232.38385773793391
 20
672.57376444566091
 30
0.0
  0
VERTEX
  8
001
  6
PHANTOM
 62
               3
  5
60F
 10
232.58594522581916
 20
669.84882973241588
 30
0.0
  0
SEQEND
  8
001
  5
610
  0
LINE
  8
001
  6
CENTER
  5
611
 10
122.82517758387291
 20
706.84883017548327
 30
0.0
 11
235.16860042786359
 21
706.84883017548327
 31
0.0
  0
LINE
  8
001
  6
PHANTOM
 62
               3
  5
612
 10
184.83984538709933
 20
671.34883017548327
 30
0.0
 11
190.43784538709934
 21
669.84883017548327
 31
0.0
  0
LINE
  8
001
  6
PHANTOM
 62
               3
  5
613
 10
232.58594686523543
 20
669.84880655013069
 30
0.0
 11
190.43784538709937
 21
669.84883017548327
 31
0.0
  0
LINE
  8
001
 62
               3
  5
614
 10
159.5718453870993
 20
731.8488301754835
 30
0.0
 11
159.5718453870993
 21
681.84883017548304
 31
0.0
  0
LINE
  8
001
 62
               3
  5
615
 10
157.83984538709933
 20
682.84880084171948
 30
0.0
 11
159.5718453870993
 21
681.84883017548304
 31
0.0
  0
LINE
  8
001
 62
               3
  5
616
 10
157.83984538709933
 20
730.84885950924706
 30
0.0
 11
159.5718453870993
 21
731.8488301754835
 31
0.0
  0
LINE
  8
001
 62
               3
  5
617
 10
159.5718453870993
 20
741.84880771292069
 30
0.0
 11
159.5718453870993
 21
791.84880771292114
 31
0.0
  0
LINE
  8
001
 62
               3
  5
618
 10
159.5718453870993
 20
741.84880771292069
 30
0.0
 11
157.83984538709933
 21
742.84877837915712
 31
0.0
  0
LINE
  8
001
 62
               3
  5
619
 10
159.5718453870993
 20
791.84880771292114
 30
0.0
 11
157.83984538709933
 21
790.84883704668471
 31
0.0
  0
LINE
  8
001
 62
               3
  5
61A
 10
166.59490047930791
 20
741.84880771292069
 30
0.0
 11
159.57184538709927
 21
741.84880771292069
 31
0.0
  0
POLYLINE
  8
001
 62
               3
  5
61B
 66
               1
 10
0.0
 20
0.0
 30
0.0
  0
VERTEX
  8
001
 62
               3
  5
61C
 10
164.34840989894553
 20
791.84860771292097
 30
0.0
  0
VERTEX
  8
001
 62
               3
  5
61D
 10
165.61583915670892
 20
789.89133573336881
 30
0.0
  0
VERTEX
  8
001
 62
               3
  5
61E
 10
166.72076294408529
 20
787.92886723420099
 30
0.0
  0
VERTEX
  8
001
 62
               3
  5
61F
 10
167.50067579068769
 20
785.95600569580188
 30
0.0
  0
VERTEX
  8
001
 62
               3
  5
620
 10
167.79307222612914
 20
783.96755459855558
 30
0.0
  0
VERTEX
  8
001
 62
               3
  5
621
 10
167.42671528025008
 20
781.6876218993915
 30
0.0
  0
VERTEX
  8
001
 62
               3
  5
622
 10
166.57278058189209
 20
779.38040194741211
 30
0.0
  0
VERTEX
  8
001
 62
               3
  5
623
 10
165.58015206930838
 20
777.0453554483372
 30
0.0
  0
VERTEX
  8
001
 62
               3
  5
624
 10
164.79771368075211
 20
774.6819431078867
 30
0.0
  0
VERTEX
  8
001
 62
               3
  5
625
 10
164.48324433855805
 20
771.87986673824059
 30
0.0
  0
VERTEX
  8
001
 62
               3
  5
626
 10
164.6904417574529
 20
769.04710266205109
 30
0.0
  0
VERTEX
  8
001
 62
               3
  5
627
 10
165.17468818925988
 20
766.19258146163043
 30
0.0
  0
VERTEX
  8
001
 62
               3
  5
628
 10
165.69136588580216
 20
763.3252337192913
 30
0.0
  0
VERTEX
  8
001
 62
               3
  5
629
 10
165.99585709890292
 20
760.45399001734586
 30
0.0
  0
VERTEX
  8
001
 62
               3
  5
62A
 10
165.95902623408165
 20
758.10290704545184
 30
0.0
  0
VERTEX
  8
001
 62
               3
  5
62B
 10
165.74044492744889
 20
755.75719186355127
 30
0.0
  0
VERTEX
  8
001
 62
               3
  5
62C
 10
165.46539508959236
 20
753.41882833490058
 30
0.0
  0
VERTEX
  8
001
 62
               3
  5
62D
 10
165.25915863109969
 20
751.08980032275656
 30
0.0
  0
VERTEX
  8
001
 62
               3
  5
62E
 10
165.24701746255863
 20
748.77209169037542
 30
0.0
  0
VERTEX
  8
001
 62
               3
  5
62F
 10
165.51737173265602
 20
746.45687684932727
 30
0.0
  0
VERTEX
  8
001
 62
               3
  5
630
 10
166.00245315176588
 20
744.15060618914549
 30
0.0
  0
VERTEX
  8
001
 62
               3
  5
631
 10
166.59490047833913
 20
741.84880771657311
 30
0.0
  0
SEQEND
  8
001
  5
632
  0
LINE
  8
001
 62
               3
  5
633
 10
159.5718453870993
 20
791.84880771292114
 30
0.0
 11
164.34840989894553
 21
791.84880771292114
 31
0.0
  0
LINE
  8
001
 62
               3
  5
634
 10
157.83984538709933
 20
682.84880084171948
 30
0.0
 11
157.83984538709933
 21
730.84885950924706
 31
0.0
  0
LINE
  8
001
 62
               3
  5
635
 10
157.83984538709933
 20
742.84877837915701
 30
0.0
 11
157.83984538709933
 21
790.84883704668459
 31
0.0
  0
LINE
  8
001
 62
               3
  5
636
 10
125.70587079088386
 20
776.34876683462971
 30
0.0
 11
136.13984538709929
 21
776.34876683462971
 31
0.0
  0
LINE
  8
001
 62
               3
  5
637
 10
125.70587079088386
 20
757.34876683462971
 30
0.0
 11
136.13984538709929
 21
757.34876683462971
 31
0.0
  0
LINE
  8
001
 62
               3
  5
638
 10
124.83984538709933
 20
758.84876683462971
 30
0.0
 11
124.83984538709933
 21
774.84876683462971
 31
0.0
  0
LINE
  8
001
 62
               3
  5
639
 10
125.70587079088386
 20
716.34876683462971
 30
0.0
 11
136.13984538709929
 21
716.34876683462971
 31
0.0
  0
LINE
  8
001
 62
               3
  5
63A
 10
125.70587079088386
 20
697.34876683462971
 30
0.0
 11
136.13984538709929
 21
697.34876683462971
 31
0.0
  0
LINE
  8
001
 62
               3
  5
63B
 10
124.83984538709933
 20
698.84876683462971
 30
0.0
 11
124.83984538709933
 21
714.84876683462971
 31
0.0
  0
LINE
  8
001
 62
               3
  5
63C
 10
136.13984538709929
 20
697.34876683462971
 30
0.0
 11
136.13984538709929
 21
716.34876683462971
 31
0.0
  0
LINE
  8
001
 62
               3
  5
63D
 10
124.83984538709933
 20
714.84876683462971
 30
0.0
 11
125.70587079088386
 21
716.34876683462971
 31
0.0
  0
LINE
  8
001
 62
               3
  5
63E
 10
124.83984538709933
 20
698.84876683462971
 30
0.0
 11
125.70587079088386
 21
697.34876683462971
 31
0.0
  0
LINE
  8
001
 62
               3
  5
63F
 10
125.2898453870996
 20
712.08866242323802
 30
0.0
 11
132.63984538709929
 21
712.08866242323802
 31
0.0
  0
LINE
  8
001
 62
               3
  5
640
 10
125.2898453870996
 20
711.09140752174881
 30
0.0
 11
132.63984538709929
 21
711.09140752174881
 31
0.0
  0
LINE
  8
001
 62
               3
  5
641
 10
125.2898453870996
 20
702.60612614751062
 30
0.0
 11
132.63984538709929
 21
702.60612614751062
 31
0.0
  0
LINE
  8
001
 62
               3
  5
642
 10
125.2898453870996
 20
701.60887124602141
 30
0.0
 11
132.63984538709929
 21
701.60887124602141
 31
0.0
  0
LINE
  8
001
 62
               3
  5
643
 10
125.2898453870996
 20
711.09140752174881
 30
0.0
 11
125.2898453870996
 21
712.08866242323802
 31
0.0
  0
LINE
  8
001
 62
               3
  5
644
 10
125.2898453870996
 20
702.60612614751062
 30
0.0
 11
125.2898453870996
 21
701.60887124602141
 31
0.0
  0
LINE
  8
001
 62
               3
  5
645
 10
136.13984538709929
 20
713.84876683462971
 30
0.0
 11
157.83984538709933
 21
713.84876683462971
 31
0.0
  0
LINE
  8
001
 62
               3
  5
646
 10
136.13984538709929
 20
699.84876683462971
 30
0.0
 11
157.83984538709933
 21
699.84876683462971
 31
0.0
  0
LINE
  8
001
 62
               3
  5
647
 10
136.13984538709929
 20
713.44876683462917
 30
0.0
 11
140.83984538709933
 21
713.44876683462917
 31
0.0
  0
LINE
  8
001
 62
               3
  5
648
 10
136.13984538709929
 20
700.24876683462935
 30
0.0
 11
140.83984538709933
 21
700.24876683462935
 31
0.0
  0
LINE
  8
001
 62
               3
  5
649
 10
140.83984538709933
 20
700.24876683462935
 30
0.0
 11
140.83984538709933
 21
713.44876683462917
 31
0.0
  0
LINE
  8
001
 62
               3
  5
64A
 10
140.83984538709933
 20
713.44876683462917
 30
0.0
 11
141.53266571012682
 21
713.84876683462971
 31
0.0
  0
LINE
  8
001
 62
               3
  5
64B
 10
140.83984538709933
 20
700.24876683462935
 30
0.0
 11
141.53266571012682
 21
699.84876683462971
 31
0.0
  0
LINE
  8
001
 62
               3
  5
64C
 10
145.83984538709933
 20
710.45431811009348
 30
0.0
 11
152.83984538709933
 21
710.45431811009348
 31
0.0
  0
LINE
  8
001
 62
               3
  5
64D
 10
145.83984538709933
 20
703.24321555916595
 30
0.0
 11
152.83984538709933
 21
703.24321555916595
 31
0.0
  0
LINE
  8
001
 62
               3
  5
64E
 10
145.83984538709933
 20
703.24321555916595
 30
0.0
 11
145.83984538709933
 21
710.45431811009348
 31
0.0
  0
LINE
  8
001
 62
               3
  5
64F
 10
152.83984538709933
 20
703.24321555916595
 30
0.0
 11
152.83984538709933
 21
710.45431811009348
 31
0.0
  0
LINE
  8
001
 62
               3
  5
650
 10
152.83984538709933
 20
710.45431811009348
 30
0.0
 11
145.83984538709933
 21
703.24321555916595
 31
0.0
  0
LINE
  8
001
 62
               3
  5
651
 10
145.83984538709933
 20
710.45431811009348
 30
0.0
 11
152.83984538709933
 21
703.24321555916595
 31
0.0
  0
LINE
  8
001
 62
               3
  5
652
 10
132.63984538709929
 20
716.31956460539641
 30
0.0
 11
125.2898453870996
 21
712.08866242323802
 31
0.0
  0
LINE
  8
001
 62
               3
  5
653
 10
125.70587079088386
 20
716.34876683462971
 30
0.0
 11
132.63984538709929
 21
712.08866242323802
 31
0.0
  0
LINE
  8
001
 62
               3
  5
654
 10
132.63984538709929
 20
711.09140752174881
 30
0.0
 11
125.2898453870996
 21
702.60612614751062
 31
0.0
  0
LINE
  8
001
 62
               3
  5
655
 10
125.2898453870996
 20
711.09140752174881
 30
0.0
 11
132.63984538709929
 21
702.60689256104251
 31
0.0
  0
LINE
  8
001
 62
               3
  5
656
 10
132.63984538709929
 20
701.60887124602141
 30
0.0
 11
125.70587079088386
 21
697.34876683462971
 31
0.0
  0
LINE
  8
001
 62
               3
  5
657
 10
125.2898453870996
 20
701.60887124602141
 30
0.0
 11
132.63984538709929
 21
697.37796906386302
 31
0.0
  0
LINE
  8
001
  6
DASHED
 62
               3
  5
658
 10
147.83984538709933
 20
702.84876683462971
 30
0.0
 11
147.83984538709933
 21
710.84876683462971
 31
0.0
  0
LINE
  8
001
  6
DASHED
 62
               3
  5
659
 10
143.50329753553683
 20
710.84876683462971
 30
0.0
 11
147.83984538709933
 21
710.84876683462971
 31
0.0
  0
LINE
  8
001
  6
DASHED
 62
               3
  5
65A
 10
143.32409831678683
 20
702.84876683462971
 30
0.0
 11
147.83984538709933
 21
702.84876683462971
 31
0.0
  0
LINE
  8
001
  6
DASHED
 62
               3
  5
65B
 10
147.83984538709933
 20
710.84876683462971
 30
0.0
 11
150.14924646385793
 21
706.84876683462971
 31
0.0
  0
LINE
  8
001
  6
DASHED
 62
               3
  5
65C
 10
150.14924646385793
 20
706.84876683462971
 30
0.0
 11
147.83984538709933
 21
702.84876683462971
 31
0.0
  0
ARC
  8
001
 62
               3
  5
65D
 10
118.25324870741179
 20
706.85257695534256
 30
0.0
 40
15.000000000000002
 50
343.57005981055613
 51
16.429940189443876
  0
ARC
  8
001
 62
               3
  5
65E
 10
128.10940758471725
 20
714.20411351431721
 30
0.0
 40
4.9999999999999991
 50
334.97015980694908
 51
25.029840193050916
  0
ARC
  8
001
 62
               3
  5
65F
 10
129.82028318948119
 20
714.20411351431721
 30
0.0
 40
4.9999999999999991
 50
185.06994381571999
 51
205.02984019305089
  0
ARC
  8
001
 62
               3
  5
660
 10
139.67644206678665
 20
706.85257695534256
 30
0.0
 40
15.000000000000002
 50
163.57005981055622
 51
171.53518482641536
  0
ARC
  8
001
 62
               3
  5
661
 10
128.10940758471725
 20
699.49342015494221
 30
0.0
 40
4.9999999999999991
 50
334.97015980694908
 51
25.029840193050916
  0
ARC
  8
001
 62
               3
  5
662
 10
129.82028318948119
 20
699.49342015494221
 30
0.0
 40
5.0
 50
154.97015980694911
 51
174.93005618428001
  0
ARC
  8
001
 62
               3
  5
663
 10
139.67644206678665
 20
706.84495671391687
 30
0.0
 40
14.999999999999996
 50
188.46481517358455
 51
196.42994018944378
  0
ARC
  8
001
 62
               3
  5
664
 10
144.59363413586402
 20
706.84876683462971
 30
0.0
 40
8.9999999999999964
 50
336.38325618884153
 51
23.616743811158365
  0
ARC
  8
001
 62
               3
  5
665
 10
154.08605663833464
 20
706.84876683462971
 30
0.0
 40
8.9999999999999964
 50
156.38325618884156
 51
203.61674381115836
  0
LINE
  8
001
 62
               3
  5
666
 10
136.13984538709929
 20
757.34876683462971
 30
0.0
 11
136.13984538709929
 21
776.34876683462971
 31
0.0
  0
LINE
  8
001
 62
               3
  5
667
 10
124.83984538709933
 20
774.84876683462971
 30
0.0
 11
125.70587079088386
 21
776.34876683462971
 31
0.0
  0
LINE
  8
001
 62
               3
  5
668
 10
124.83984538709933
 20
758.84876683462971
 30
0.0
 11
125.70587079088386
 21
757.34876683462971
 31
0.0
  0
LINE
  8
001
 62
               3
  5
669
 10
125.2898453870996
 20
772.08866242323802
 30
0.0
 11
132.63984538709929
 21
772.08866242323802
 31
0.0
  0
LINE
  8
001
 62
               3
  5
66A
 10
125.2898453870996
 20
771.09140752174881
 30
0.0
 11
132.63984538709929
 21
771.09140752174881
 31
0.0
  0
LINE
  8
001
 62
               3
  5
66B
 10
125.2898453870996
 20
762.60612614751062
 30
0.0
 11
132.63984538709929
 21
762.60612614751062
 31
0.0
  0
LINE
  8
001
 62
               3
  5
66C
 10
125.2898453870996
 20
761.60887124602141
 30
0.0
 11
132.63984538709929
 21
761.60887124602141
 31
0.0
  0
LINE
  8
001
 62
               3
  5
66D
 10
125.2898453870996
 20
771.09140752174881
 30
0.0
 11
125.2898453870996
 21
772.08866242323802
 31
0.0
  0
LINE
  8
001
 62
               3
  5
66E
 10
125.2898453870996
 20
762.60612614751062
 30
0.0
 11
125.2898453870996
 21
761.60887124602141
 31
0.0
  0
LINE
  8
001
 62
               3
  5
66F
 10
136.13984538709929
 20
773.44876683462917
 30
0.0
 11
140.83984538709933
 21
773.44876683462917
 31
0.0
  0
LINE
  8
001
 62
               3
  5
670
 10
136.13984538709929
 20
760.24876683462935
 30
0.0
 11
140.83984538709933
 21
760.24876683462935
 31
0.0
  0
LINE
  8
001
 62
               3
  5
671
 10
140.83984538709933
 20
760.24876683462935
 30
0.0
 11
140.83984538709933
 21
773.44876683462917
 31
0.0
  0
LINE
  8
001
 62
               3
  5
672
 10
140.83984538709933
 20
773.44876683462917
 30
0.0
 11
141.53266571012682
 21
773.84876683462971
 31
0.0
  0
LINE
  8
001
 62
               3
  5
673
 10
140.83984538709933
 20
760.24876683462935
 30
0.0
 11
141.53266571012682
 21
759.84876683462971
 31
0.0
  0
LINE
  8
001
 62
               3
  5
674
 10
132.63984538709929
 20
776.31956460539641
 30
0.0
 11
125.2898453870996
 21
772.08866242323802
 31
0.0
  0
LINE
  8
001
 62
               3
  5
675
 10
125.70587079088386
 20
776.34876683462971
 30
0.0
 11
132.63984538709929
 21
772.08866242323802
 31
0.0
  0
LINE
  8
001
 62
               3
  5
676
 10
132.63984538709929
 20
771.09140752174881
 30
0.0
 11
125.2898453870996
 21
762.60612614751062
 31
0.0
  0
LINE
  8
001
 62
               3
  5
677
 10
125.2898453870996
 20
771.09140752174881
 30
0.0
 11
132.63984538709929
 21
762.60689256104251
 31
0.0
  0
LINE
  8
001
 62
               3
  5
678
 10
132.63984538709929
 20
761.60887124602141
 30
0.0
 11
125.70587079088386
 21
757.34876683462971
 31
0.0
  0
LINE
  8
001
 62
               3
  5
679
 10
125.2898453870996
 20
761.60887124602141
 30
0.0
 11
132.63984538709929
 21
757.37796906386302
 31
0.0
  0
ARC
  8
001
 62
               3
  5
67A
 10
118.25324870741179
 20
766.85257695534256
 30
0.0
 40
15.000000000000002
 50
343.57005981055613
 51
16.429940189443876
  0
ARC
  8
001
 62
               3
  5
67B
 10
128.10940758471725
 20
774.20411351431721
 30
0.0
 40
4.9999999999999991
 50
334.97015980694908
 51
25.029840193050916
  0
ARC
  8
001
 62
               3
  5
67C
 10
129.82028318948119
 20
774.20411351431721
 30
0.0
 40
4.9999999999999991
 50
185.06994381571999
 51
205.02984019305089
  0
ARC
  8
001
 62
               3
  5
67D
 10
139.67644206678665
 20
766.85257695534256
 30
0.0
 40
15.000000000000002
 50
163.57005981055622
 51
171.53518482641536
  0
ARC
  8
001
 62
               3
  5
67E
 10
128.10940758471725
 20
759.49342015494221
 30
0.0
 40
4.9999999999999991
 50
334.97015980694908
 51
25.029840193050916
  0
ARC
  8
001
 62
               3
  5
67F
 10
129.82028318948119
 20
759.49342015494221
 30
0.0
 40
5.0
 50
154.97015980694911
 51
174.93005618428001
  0
ARC
  8
001
 62
               3
  5
680
 10
139.67644206678665
 20
766.84495671391687
 30
0.0
 40
14.999999999999996
 50
188.46481517358455
 51
196.42994018944378
  0
LINE
  8
001
 62
               3
  5
681
 10
145.83984538709933
 20
773.84876683462971
 30
0.0
 11
145.83984538709933
 21
772.84879772956197
 31
0.0
  0
LINE
  8
001
 62
               3
  5
682
 10
153.83984538709933
 20
773.84876683462971
 30
0.0
 11
153.83984538709933
 21
772.84880438513596
 31
0.0
  0
LINE
  8
001
 62
               3
  5
683
 10
145.83984538709933
 20
772.84879772956197
 30
0.0
 11
153.83984538709933
 21
772.84880438513596
 31
0.0
  0
LINE
  8
001
 62
               3
  5
684
 10
145.83984538709933
 20
773.84876683462971
 30
0.0
 11
136.13984538709929
 21
773.84876683462971
 31
0.0
  0
LINE
  8
001
 62
               3
  5
685
 10
153.83984538709933
 20
773.84876683462971
 30
0.0
 11
157.83984538709933
 21
773.84876683462971
 31
0.0
  0
LINE
  8
001
 62
               3
  5
686
 10
145.83985703430255
 20
759.84882862449967
 30
0.0
 11
145.83985537046044
 21
760.84879772956606
 31
0.0
  0
LINE
  8
001
 62
               3
  5
687
 10
153.83985703429141
 20
759.84884193564767
 30
0.0
 11
153.83985537046038
 21
760.84880438514006
 31
0.0
  0
LINE
  8
001
 62
               3
  5
688
 10
145.83985537046044
 20
760.84879772956606
 30
0.0
 11
153.83985537046044
 21
760.84880438514006
 31
0.0
  0
LINE
  8
001
 62
               3
  5
689
 10
145.8398562023815
 20
759.84876683462971
 30
0.0
 11
136.13984538709931
 21
759.84876683462971
 31
0.0
  0
LINE
  8
001
 62
               3
  5
68A
 10
153.83985703429141
 20
759.84876683462971
 30
0.0
 11
157.8398453870993
 21
759.84876683462971
 31
0.0
  0
LINE
  8
001
  6
CENTER
  5
68B
 10
167.64719500491503
 20
766.84881587211362
 30
0.0
 11
122.46982620662854
 21
766.84877828694823
 31
0.0
  0
TEXT
  8
001
  5
68C
 10
124.43763406300968
 20
721.64650069522099
 30
0.0
 40
10.0
  1
ER11
 41
0.599999880000024
  0
LINE
  8
001
  6
PHANTOM
  5
68D
 10
184.83984538709933
 20
97.534490541098194
 30
0.0
 11
184.83984538709933
 21
671.34883017548327
 31
0.0
  0
TEXT
  8
001
  5
68E
 10
-43.090884304455884
 20
729.52274430128966
 30
0.0
 40
10.0
  1
ES3P-3075L(A),3060L(A)
 41
0.5593220244182707
  0
TEXT
  8
001
  5
68F
 10
-43.090884304455884
 20
717.02274430128966
 30
0.0
 40
10.0
  1
ES3P-6049L(A)
 41
0.5342465607055736
  0
TEXT
  8
001
  5
690
 10
-92.187166588307036
 20
605.04711079958645
 30
0.0
 40
10.0
  1
ES3P-6034L(A),1326L(A),1318L(A)
 41
0.577639694147608
  0
TEXT
  8
001
  5
691
 10
-92.187166588307036
 20
592.54711079958645
 30
0.0
 40
10.0
  1
ES3P-1314L(A),1310L(A),1307L(A)
 41
0.5961537773668718
  0
TEXT
  8
001
  5
692
 10
-92.187166588307036
 20
580.04711079958645
 30
0.0
 40
10.0
  1
ES3P-1306L(A),1305L(A)
 41
0.573913003553878
  0
TEXT
  8
001
 62
               3
  5
693
 10
267.91876517768412
 20
504.3945599060354
 30
0.0
 40
6.0
  1
　　　改良のため、予告なく変更することがあります。
 41
0.8399999803966946
  0
TEXT
  8
001
 62
               3
  5
694
 10
267.91876517768412
 20
524.3945599060354
 30
0.0
 40
6.0
  1
注記：図形データは簡略化されているため、カタログ記載寸法
 41
0.8399999803966946
  0
TEXT
  8
001
 62
               3
  5
695
 10
267.91876517768412
 20
514.3945599060354
 30
0.0
 40
6.0
  1
　　　以外は参考としてください。
 41
0.8399999803966946
  0
LINE
  8
001
  6
CENTER
  5
696
 10
635.83974538709936
 20
986.75960396906544
 30
0.0
 11
293.83974538709941
 21
986.75960396906544
 31
0.0
  0
LINE
  8
001
 62
               3
  5
697
 10
303.83974538709936
 20
1025.7596039690654
 30
0.0
 11
303.83974538709936
 21
947.75960396906544
 31
0.0
  0
LINE
  8
001
  6
PHANTOM
 62
               3
  5
698
 10
256.83964538709938
 20
929.75960396906544
 30
0.0
 11
291.83964538709938
 21
929.75960396906544
 31
0.0
  0
LINE
  8
001
  6
PHANTOM
 62
               3
  5
699
 10
256.83964538709938
 20
1043.7596039690654
 30
0.0
 11
291.83964538709938
 21
1043.7596039690654
 31
0.0
  0
LINE
  8
001
  6
PHANTOM
 62
               3
  5
69A
 10
238.83974538709933
 20
1025.7596039690654
 30
0.0
 11
238.83974538709933
 21
947.75960396906544
 31
0.0
  0
ARC
  8
001
 62
               3
  5
69B
 10
321.83974538709936
 20
1025.7596039690654
 30
0.0
 40
18.0
 50
90.0
 51
180.0
  0
ARC
  8
001
 62
               3
  5
69C
 10
321.83974538709936
 20
947.75960396906544
 30
0.0
 40
18.0
 50
180.0
 51
270.0
  0
ARC
  8
001
  6
PHANTOM
 62
               3
  5
69D
 10
256.83974538709936
 20
947.75960396906544
 30
0.0
 40
18.0
 50
180.0
 51
270.0
  0
ARC
  8
001
  6
PHANTOM
 62
               3
  5
69E
 10
256.83974538709936
 20
1025.7596039690654
 30
0.0
 40
18.0
 50
90.0
 51
180.0
  0
TEXT
  8
001
  5
69F
 10
251.03526441523471
 20
996.02995852289087
 30
0.0
 40
10.0
  1
6POLES
 50
90.000002504478161
 41
0.5
  0
TEXT
  8
001
  5
6A0
 10
316.03526441523474
 20
996.02995852289087
 30
0.0
 40
10.0
  1
2POLES
 50
90.000002504478161
 41
0.5
  0
LINE
  8
001
 62
               3
  5
6A1
 10
303.83974538709936
 20
1241.2343998231822
 30
0.0
 11
303.83974538709936
 21
1163.2343998231822
 31
0.0
  0
LINE
  8
001
  6
PHANTOM
 62
               3
  5
6A2
 10
256.83974538709936
 20
1145.2342998231823
 30
0.0
 11
291.83974538709936
 21
1145.2342998231823
 31
0.0
  0
LINE
  8
001
  6
PHANTOM
 62
               3
  5
6A3
 10
256.83974538709936
 20
1259.2342998231823
 30
0.0
 11
291.83974538709936
 21
1259.2341998231823
 31
0.0
  0
LINE
  8
001
  6
PHANTOM
 62
               3
  5
6A4
 10
238.83974538709933
 20
1241.2343998231822
 30
0.0
 11
238.83974538709933
 21
1163.2343998231822
 31
0.0
  0
LINE
  8
001
 62
               3
  5
6A5
 10
190.43896506174406
 20
1239.2343998231822
 30
0.0
 11
303.83974538709936
 21
1239.2343998231822
 31
0.0
  0
LINE
  8
001
 62
               3
  5
6A6
 10
190.43709898709955
 20
1165.2343998231822
 30
0.0
 11
303.83974538709936
 21
1165.2343998231822
 31
0.0
  0
ARC
  8
001
 62
               3
  5
6A7
 10
321.83974538709936
 20
1163.2343998231822
 30
0.0
 40
18.0
 50
180.0
 51
270.0
  0
ARC
  8
001
 62
               3
  5
6A8
 10
321.83974538709936
 20
1241.2343998231822
 30
0.0
 40
18.0
 50
90.0
 51
180.0
  0
ARC
  8
001
  6
PHANTOM
 62
               3
  5
6A9
 10
256.83974538709936
 20
1163.2343998231822
 30
0.0
 40
18.0
 50
180.0
 51
270.0
  0
ARC
  8
001
  6
PHANTOM
 62
               3
  5
6AA
 10
256.83974538709936
 20
1241.2343998231822
 30
0.0
 40
18.0
 50
90.0
 51
180.0
  0
LINE
  8
001
  6
CENTER
  5
6AB
 10
835.93638035827303
 20
846.75960396906544
 30
0.0
 11
705.93568035827298
 21
846.75960396906544
 31
0.0
  0
TEXT
  8
001
  5
6AC
 10
-130.18716658830704
 20
489.26122999338315
 30
0.0
 40
10.0
  1
ES3P-6034L(A),1326L(A),1318L(A)
 41
0.577639694147608
  0
TEXT
  8
001
  5
6AD
 10
-130.18716658830704
 20
476.76122999338315
 30
0.0
 40
10.0
  1
ES3P-1314L(A),1310L(A),1307L(A)
 41
0.5961537773668718
  0
TEXT
  8
001
  5
6AE
 10
-130.18716658830704
 20
464.26122999338315
 30
0.0
 40
10.0
  1
ES3P-1306L(A),1305L(A)
 41
0.573913003553878
  0
TEXT
  8
001
  5
6AF
 10
-130.18716658830704
 20
389.26122999338315
 30
0.0
 40
10.0
  1
ES3P-6034L(A),1326L(A),1318L(A)
 41
0.577639694147608
  0
TEXT
  8
001
  5
6B0
 10
-130.18716658830704
 20
376.76122999338315
 30
0.0
 40
10.0
  1
ES3P-1314L(A),1310L(A),1307L(A)
 41
0.5961537773668718
  0
TEXT
  8
001
  5
6B1
 10
-130.18716658830704
 20
364.26122999338315
 30
0.0
 40
10.0
  1
ES3P-1306L(A),1305L(A)
 41
0.573913003553878
  0
TEXT
  8
001
  5
6B2
 10
-129.68716658830704
 20
289.26122999338315
 30
0.0
 40
10.0
  1
ES3P-6034L(A),1326L(A),1318L(A)
 41
0.577639694147608
  0
TEXT
  8
001
  5
6B3
 10
-129.68716658830704
 20
276.76122999338315
 30
0.0
 40
10.0
  1
ES3P-1314L(A),1310L(A),1307L(A)
 41
0.5961537773668718
  0
TEXT
  8
001
  5
6B4
 10
-129.68716658830704
 20
264.26122999338315
 30
0.0
 40
10.0
  1
ES3P-1306L(A),1305L(A)
 41
0.573913003553878
  0
TEXT
  8
001
  5
6B5
 10
-130.18716658830704
 20
190.23287116520135
 30
0.0
 40
10.0
  1
ES3P-6034L(A),1326L(A),1318L(A)
 41
0.577639694147608
  0
TEXT
  8
001
  5
6B6
 10
-130.18716658830704
 20
177.73287116520135
 30
0.0
 40
10.0
  1
ES3P-1314L(A),1310L(A),1307L(A)
 41
0.5961537773668718
  0
TEXT
  8
001
  5
6B7
 10
-130.18716658830704
 20
165.23287116520135
 30
0.0
 40
10.0
  1
ES3P-1306L(A),1305L(A)
 41
0.573913003553878
  0
TEXT
  8
001
  5
6B8
 10
-129.68716658830704
 20
90.232871165201345
 30
0.0
 40
10.0
  1
ES3P-6034L(A),1326L(A),1318L(A)
 41
0.577639694147608
  0
TEXT
  8
001
  5
6B9
 10
-129.68716658830704
 20
77.732871165201345
 30
0.0
 40
10.0
  1
ES3P-1314L(A),1310L(A),1307L(A)
 41
0.5961537773668718
  0
TEXT
  8
001
  5
6BA
 10
-129.68716658830704
 20
65.232871165201345
 30
0.0
 40
10.0
  1
ES3P-1306L(A),1305L(A)
 41
0.573913003553878
  0
LINE
  8
001
 62
               3
  5
6BB
 10
443.83994538709936
 20
1148.2343998231822
 30
0.0
 11
568.83974538709936
 21
1148.2343998231822
 31
0.0
  0
LINE
  8
001
 62
               3
  5
6BC
 10
443.83994538709936
 20
1256.2343998231822
 30
0.0
 11
568.83974538709936
 21
1256.2343998231822
 31
0.0
  0
LINE
  8
001
 62
               3
  5
6BD
 10
443.8397453870993
 20
1259.2343998231822
 30
0.0
 11
443.8397453870993
 21
1145.2343998231822
 31
0.0
  0
LINE
  8
001
 62
               3
  5
6BE
 10
321.83974538709936
 20
1259.2343998231822
 30
0.0
 11
443.8397453870993
 21
1259.2343998231822
 31
0.0
  0
LINE
  8
001
 62
               3
  5
6BF
 10
321.83974538709936
 20
1145.2343998231822
 30
0.0
 11
443.8397453870993
 21
1145.2343998231822
 31
0.0
  0
LINE
  8
001
 62
               3
  5
6C0
 10
321.83974538709936
 20
1043.7596039690654
 30
0.0
 11
443.8397453870993
 21
1043.7596039690654
 31
0.0
  0
LINE
  8
001
 62
               3
  5
6C1
 10
443.83994538709936
 20
933.75960396906544
 30
0.0
 11
568.83974538709936
 21
933.75970396906541
 31
0.0
  0
LINE
  8
001
 62
               3
  5
6C2
 10
321.83974538709936
 20
929.75960396906544
 30
0.0
 11
443.8397453870993
 21
929.75960396906544
 31
0.0
  0
LINE
  8
001
 62
               3
  5
6C3
 10
443.83994538709936
 20
1039.7596039690654
 30
0.0
 11
568.83974538709936
 21
1039.7596039690654
 31
0.0
  0
LINE
  8
001
 62
               3
  5
6C4
 10
443.8397453870993
 20
1043.7596039690654
 30
0.0
 11
443.8397453870993
 21
929.75960396906544
 31
0.0
  0
TEXT
  8
001
  5
6C5
 10
79.955990251869309
 20
1064.1309836735718
 30
0.0
 40
10.0
  1
ES3P-30**L(A)
 41
0.5342465607055736
  0
TEXT
  8
001
  5
6C6
 10
80.303007067963676
 20
967.41445975795205
 30
0.0
 40
10.0
  1
ES3P-60**L(A)
 41
0.5342465607055736
  0
TEXT
  8
001
  5
6C7
 10
80.799587680247669
 20
877.35068982158521
 30
0.0
 40
10.0
  1
ES3P-13**L(A)
 41
0.5416666215277814
  0
TEXT
  8
001
  5
6C8
 10
551.94396412123297
 20
683.41424734433758
 30
0.0
 40
10.0
  1
(MOTOR TYPE)
 41
0.5487804543426552
  0
TEXT
  8
001
  5
6C9
 10
551.94396412123297
 20
670.91424734433758
 30
0.0
 40
10.0
  1
2POLES
 41
0.5
  0
TEXT
  8
001
  5
6CA
 10
551.94396412123297
 20
658.41424734433758
 30
0.0
 40
10.0
  1
ES3P-3075L(A),3060L(A)
 41
0.5593220244182707
  0
TEXT
  8
001
  5
6CB
 10
551.94396412123297
 20
645.91424734433758
 30
0.0
 40
10.0
  1
ES3P-6049L(A),6034L(A)
 41
0.5546218300967452
  0
TEXT
  8
001
  5
6CC
 10
551.94396412123297
 20
633.41424734433758
 30
0.0
 40
10.0
  1
ES3P-1326L(A),1318L(A)
 41
0.5739129736105945
  0
TEXT
  8
001
  5
6CD
 10
551.94396412123297
 20
620.91424734433758
 30
0.0
 40
10.0
  1
6POLES
 41
0.5
  0
TEXT
  8
001
  5
6CE
 10
551.94396412123297
 20
608.41424734433758
 30
0.0
 40
10.0
  1
ES3P-1314L(A),1310L(A),1307L(A)
 41
0.5961537773668718
  0
TEXT
  8
001
  5
6CF
 10
551.94396412123297
 20
595.91424734433758
 30
0.0
 40
10.0
  1
ES3P-1306L(A),1305L(A)
 41
0.573913003553878
  0
TEXT
  8
001
  5
6D0
 10
551.94396412123297
 20
583.41424734433758
 30
0.0
 40
10.0
  1
(2006/04/17)
 41
0.5714285714285714
  0
ENDSEC
  0
EOF
