  0
SECTION
  2
HEADER
  9
$ACADVER
  1
AC1009
  9
$DWGCODEPAGE
  3
dos932
  9
$INSBASE
 10
0.0
 20
0.0
 30
0.0
  9
$EXTMIN
 10
-180.556396484375
 20
38.704833984375
 30
1.0000000000000000E+20
  9
$EXTMAX
 10
926.4794921875
 20
1267.6392822265625
 30
-1.0000000000000000E+20
  9
$LIMMIN
 10
0.0
 20
0.0
  9
$LIMMAX
 10
12.0
 20
9.0
  9
$ORTHOMODE
 70
               0
  9
$REGENMODE
 70
               1
  9
$FILLMODE
 70
               1
  9
$QTEXTMODE
 70
               0
  9
$MIRRTEXT
 70
               1
  9
$DRAGMODE
 70
               2
  9
$LTSCALE
 40
20.482240804036458
  9
$OSMODE
 70
               0
  9
$ATTMODE
 70
               1
  9
$TEXTSIZE
 40
3.2000000000000002
  9
$TRACEWID
 40
0.05
  9
$TEXTSTYLE
  7
STANDARD
  9
$CLAYER
  8
0
  9
$CELTYPE
  6
CONTINUOUS
  9
$CECOLOR
 62
             256
  9
$DIMSCALE
 40
1.0
  9
$DIMASZ
 40
0.18
  9
$DIMEXO
 40
0.0625
  9
$DIMDLI
 40
0.38
  9
$DIMRND
 40
0.0
  9
$DIMDLE
 40
0.0
  9
$DIMEXE
 40
0.18
  9
$DIMTP
 40
0.0
  9
$DIMTM
 40
0.0
  9
$DIMTXT
 40
0.18
  9
$DIMCEN
 40
0.09
  9
$DIMTSZ
 40
0.0
  9
$DIMTOL
 70
               0
  9
$DIMLIM
 70
               0
  9
$DIMTIH
 70
               1
  9
$DIMTOH
 70
               1
  9
$DIMSE1
 70
               0
  9
$DIMSE2
 70
               0
  9
$DIMTAD
 70
               0
  9
$DIMZIN
 70
               0
  9
$DIMBLK
  1

  9
$DIMASO
 70
               1
  9
$DIMSHO
 70
               1
  9
$DIMPOST
  1

  9
$DIMAPOST
  1

  9
$DIMALT
 70
               0
  9
$DIMALTD
 70
               2
  9
$DIMALTF
 40
25.399999999999999
  9
$DIMLFAC
 40
1.0
  9
$DIMTOFL
 70
               0
  9
$DIMTVP
 40
0.0
  9
$DIMTIX
 70
               0
  9
$DIMSOXD
 70
               0
  9
$DIMSAH
 70
               0
  9
$DIMBLK1
  1

  9
$DIMBLK2
  1

  9
$DIMSTYLE
  2
STANDARD
  9
$DIMCLRD
 70
               0
  9
$DIMCLRE
 70
               0
  9
$DIMCLRT
 70
               0
  9
$DIMTFAC
 40
1.0
  9
$DIMGAP
 40
0.09
  9
$LUNITS
 70
               2
  9
$LUPREC
 70
               4
  9
$AXISMODE
 70
               0
  9
$AXISUNIT
 10
0.0
 20
0.0
  9
$SKETCHINC
 40
0.1
  9
$FILLETRAD
 40
0.0
  9
$AUNITS
 70
               0
  9
$AUPREC
 70
               0
  9
$MENU
  1
acad
  9
$ELEVATION
 40
0.0
  9
$PELEVATION
 40
0.0
  9
$THICKNESS
 40
0.0
  9
$LIMCHECK
 70
               0
  9
$BLIPMODE
 70
               1
  9
$CHAMFERA
 40
0.0
  9
$CHAMFERB
 40
0.0
  9
$SKPOLY
 70
               0
  9
$TDCREATE
 40
0.000000000
  9
$TDUPDATE
 40
0.000000000
  9
$TDINDWG
 40
0.0000000000
  9
$TDUSRTIMER
 40
0.0000000000
  9
$USRTIMER
 70
               1
  9
$ANGBASE
 50
0.0
  9
$ANGDIR
 70
               0
  9
$PDMODE
 70
               0
  9
$PDSIZE
 40
0.0
  9
$PLINEWID
 40
0.0
  9
$COORDS
 70
               1
  9
$SPLFRAME
 70
               0
  9
$SPLINETYPE
 70
               6
  9
$SPLINESEGS
 70
               8
  9
$ATTDIA
 70
               0
  9
$ATTREQ
 70
               1
  9
$HANDLING
 70
               1
  9
$HANDSEED
  5
6E4
  9
$SURFTAB1
 70
               6
  9
$SURFTAB2
 70
               6
  9
$SURFTYPE
 70
               6
  9
$SURFU
 70
               6
  9
$SURFV
 70
               6
  9
$UCSNAME
  2

  9
$UCSORG
 10
0.0
 20
0.0
 30
0.0
  9
$UCSXDIR
 10
1.0
 20
0.0
 30
0.0
  9
$UCSYDIR
 10
0.0
 20
1.0
 30
0.0
  9
$PUCSNAME
  2

  9
$PUCSORG
 10
0.0
 20
0.0
 30
0.0
  9
$PUCSXDIR
 10
1.0
 20
0.0
 30
0.0
  9
$PUCSYDIR
 10
0.0
 20
1.0
 30
0.0
  9
$USERI1
 70
               0
  9
$USERI2
 70
               0
  9
$USERI3
 70
               0
  9
$USERI4
 70
               0
  9
$USERI5
 70
               0
  9
$USERR1
 40
0.0
  9
$USERR2
 40
0.0
  9
$USERR3
 40
0.0
  9
$USERR4
 40
0.0
  9
$USERR5
 40
0.0
  9
$WORLDVIEW
 70
               1
  9
$SHADEDGE
 70
               3
  9
$SHADEDIF
 70
              70
  9
$TILEMODE
 70
               1
  9
$MAXACTVP
 70
              16
  9
$PINSBASE
 10
0.0
 20
0.0
 30
0.0
  9
$PLIMCHECK
 70
               0
  9
$PEXTMIN
 10
1.0000000000000000E+20
 20
1.0000000000000000E+20
 30
1.0000000000000000E+20
  9
$PEXTMAX
 10
-1.0000000000000000E+20
 20
-1.0000000000000000E+20
 30
-1.0000000000000000E+20
  9
$PLIMMIN
 10
0.0
 20
0.0
  9
$PLIMMAX
 10
12.0
 20
9.0
  9
$UNITMODE
 70
               0
  9
$VISRETAIN
 70
               0
  9
$PLINEGEN
 70
               0
  9
$PSLTSCALE
 70
               1
  9
$TREEDEPTH
 70
            3020
  0
ENDSEC
  0
SECTION
  2
TABLES
  0
TABLE
  2
VPORT
 70
               1
  0
VPORT
  2
*ACTIVE
 70
               0
 10
0.0
 20
0.0
 11
1.0
 21
1.0
 12
372.9615478515625
 22
653.17205810546875
 13
0.0
 23
0.0
 14
1.0
 24
1.0
 15
0.0
 25
0.0
 16
0.0
 26
0.0
 36
1.0
 17
0.0
 27
0.0
 37
0.0
 40
1241.2237927246094
 41
1.6912879999999999
 42
50.0
 43
0.0
 44
0.0
 50
0.0
 51
0.0
 71
               0
 72
             100
 73
               1
 74
               1
 75
               0
 76
               0
 77
               0
 78
               0
  0
ENDTAB
  0
TABLE
  2
LTYPE
 70
               5
  0
LTYPE
  2
CONTINUOUS
 70
              64
  3
Solid line
 72
              65
 73
               0
 40
0.0
  0
LTYPE
  2
DASHED
 70
              64
  3
DASHED
 72
              65
 73
               2
 40
0.75
 49
0.5
 49
-0.25
  0
LTYPE
  2
HIDDEN
 70
              64
  3
HIDDEN
 72
              65
 73
               2
 40
0.375
 49
0.25
 49
-0.125
  0
LTYPE
  2
CENTER
 70
              64
  3
CENTER
 72
              65
 73
               4
 40
2.0
 49
1.25
 49
-0.25
 49
0.25
 49
-0.25
  0
LTYPE
  2
PHANTOM
 70
              64
  3
PHANTOM
 72
              65
 73
               6
 40
2.5
 49
1.25
 49
-0.25
 49
0.25
 49
-0.25
 49
0.25
 49
-0.25
  0
ENDTAB
  0
TABLE
  2
LAYER
 70
               2
  0
LAYER
  2
0
 70
               0
 62
               7
  6
CONTINUOUS
  0
LAYER
  2
001
 70
               0
 62
               7
  6
CONTINUOUS
  0
ENDTAB
  0
TABLE
  2
STYLE
 70
               2
  0
STYLE
  2
STANDARD
 70
               0
 40
0.0
 41
1.0
 50
0.0
 71
               0
 42
0.2
  3
TXT
  4
BIGFONT
  0
STYLE
  2
TATEGAKI
 70
               4
 40
1.0
 41
1.0
 50
0.0
 71
               0
 42
0.2
  3
TXT
  4
BIGFONT
  0
ENDTAB
  0
TABLE
  2
VIEW
 70
               0
  0
ENDTAB
  0
TABLE
  2
UCS
 70
               0
  0
ENDTAB
  0
TABLE
  2
APPID
 70
               1
  0
APPID
  2
ACAD
 70
               0
  0
ENDTAB
  0
TABLE
  2
DIMSTYLE
 70
               1
  0
DIMSTYLE
  2
STANDARD
 70
               0
  3

  4

  5

  6

  7

 40
1.0
 41
0.18
 42
0.0625
 43
0.38
 44
0.18
 45
0.0
 46
0.0
 47
0.0
 48
0.0
 71
               0
 72
               0
 73
               1
 74
               1
 75
               0
 76
               0
 77
               0
 78
               0
140
0.18
141
0.09
142
0.0
143
25.399999999999999
144
1.0
145
0.0
146
1.0
147
0.09
170
               0
171
               2
172
               0
173
               0
174
               0
175
               0
176
               0
177
               0
178
               0
  0
ENDTAB
  0
ENDSEC
  0
SECTION
  2
BLOCKS
  0
BLOCK
  8
001
  5
24
  2
ETC-1
 70
               0
 10
0.0
 20
0.0
 30
0.0
  3
ETC-1
  0
POLYLINE
  8
001
  5
25
 66
               1
 10
0.0
 20
0.0
 30
0.0
  0
VERTEX
  8
001
  5
26
 10
824.47900481605211
 20
816.31662328098514
 30
0.0
  0
VERTEX
  8
001
  5
27
 10
819.47900481605211
 20
819.20342328098513
 30
0.0
  0
VERTEX
  8
001
  5
28
 10
814.47900481605211
 20
816.31662328098514
 30
0.0
  0
VERTEX
  8
001
  5
29
 10
814.47900481605211
 20
810.54302328098515
 30
0.0
  0
VERTEX
  8
001
  5
2A
 10
819.47900481605211
 20
807.65642328098511
 30
0.0
  0
VERTEX
  8
001
  5
2B
 10
824.47900481605211
 20
810.54302328098515
 30
0.0
  0
VERTEX
  8
001
  5
2C
 10
824.47900481605211
 20
816.31662328098514
 30
0.0
  0
SEQEND
  8
001
  5
2D
  0
ENDBLK
  8
001
  5
2E
  0
BLOCK
  8
001
  5
30
  2
ETC-2
 70
               0
 10
0.0
 20
0.0
 30
0.0
  3
ETC-2
  0
POLYLINE
  8
001
 62
               3
  5
31
 66
               1
 10
0.0
 20
0.0
 30
0.0
  0
VERTEX
  8
001
 62
               3
  5
32
 10
155.44399972541362
 20
873.42992328098512
 30
0.0
  0
VERTEX
  8
001
 62
               3
  5
33
 10
152.55729972541371
 20
868.42992328098512
 30
0.0
  0
VERTEX
  8
001
 62
               3
  5
34
 10
153.94399972541362
 20
868.42992328098512
 30
0.0
  0
VERTEX
  8
001
 62
               3
  5
35
 10
153.94399972541362
 20
859.16192328098509
 30
0.0
  0
VERTEX
  8
001
 62
               3
  5
36
 10
152.94399972541362
 20
857.42992328098512
 30
0.0
  0
VERTEX
  8
001
 62
               3
  5
37
 10
152.94399972541362
 20
847.42992328098512
 30
0.0
  0
VERTEX
  8
001
 62
               3
  5
38
 10
155.44399972541362
 20
851.76012328098511
 30
0.0
  0
VERTEX
  8
001
 62
               3
  5
39
 10
157.94399972541362
 20
847.42992328098512
 30
0.0
  0
VERTEX
  8
001
 62
               3
  5
3A
 10
157.94399972541362
 20
857.4300232809851
 30
0.0
  0
VERTEX
  8
001
 62
               3
  5
3B
 10
156.94399972541362
 20
859.16202328098518
 30
0.0
  0
VERTEX
  8
001
 62
               3
  5
3C
 10
156.94399972541362
 20
868.42992328098512
 30
0.0
  0
VERTEX
  8
001
 62
               3
  5
3D
 10
158.33069972541364
 20
868.42992328098512
 30
0.0
  0
VERTEX
  8
001
 62
               3
  5
3E
 10
155.44399972541362
 20
873.42992328098512
 30
0.0
  0
SEQEND
  8
001
  5
3F
  0
ENDBLK
  8
001
  5
40
  0
BLOCK
  8
001
  5
42
  2
ETC-3
 70
               0
 10
0.0
 20
0.0
 30
0.0
  3
ETC-3
  0
POLYLINE
  8
001
 62
               3
  5
43
 66
               1
 10
0.0
 20
0.0
 30
0.0
  0
VERTEX
  8
001
 62
               3
  5
44
 10
155.44399972541362
 20
1223.6393224470667
 30
0.0
  0
VERTEX
  8
001
 62
               3
  5
45
 10
152.55729972541371
 20
1218.6393224470667
 30
0.0
  0
VERTEX
  8
001
 62
               3
  5
46
 10
153.94399972541362
 20
1218.6393224470667
 30
0.0
  0
VERTEX
  8
001
 62
               3
  5
47
 10
153.94399972541362
 20
1209.3713224470666
 30
0.0
  0
VERTEX
  8
001
 62
               3
  5
48
 10
152.94399972541362
 20
1207.6393224470667
 30
0.0
  0
VERTEX
  8
001
 62
               3
  5
49
 10
152.94399972541362
 20
1197.6393224470667
 30
0.0
  0
VERTEX
  8
001
 62
               3
  5
4A
 10
155.44399972541362
 20
1201.9695224470668
 30
0.0
  0
VERTEX
  8
001
 62
               3
  5
4B
 10
157.94399972541362
 20
1197.6393224470667
 30
0.0
  0
VERTEX
  8
001
 62
               3
  5
4C
 10
157.94399972541362
 20
1207.6393224470667
 30
0.0
  0
VERTEX
  8
001
 62
               3
  5
4D
 10
156.94399972541362
 20
1209.3713224470666
 30
0.0
  0
VERTEX
  8
001
 62
               3
  5
4E
 10
156.94399972541362
 20
1218.6393224470667
 30
0.0
  0
VERTEX
  8
001
 62
               3
  5
4F
 10
158.33069972541364
 20
1218.6393224470667
 30
0.0
  0
VERTEX
  8
001
 62
               3
  5
50
 10
155.44399972541362
 20
1223.6393224470667
 30
0.0
  0
SEQEND
  8
001
  5
51
  0
ENDBLK
  8
001
  5
52
  0
BLOCK
  8
001
  5
54
  2
ETC-4
 70
               0
 10
0.0
 20
0.0
 30
0.0
  3
ETC-4
  0
POLYLINE
  8
001
 62
               3
  5
55
 66
               1
 10
0.0
 20
0.0
 30
0.0
  0
VERTEX
  8
001
 62
               3
  5
56
 10
837.47900481605211
 20
822.27522328098507
 30
0.0
  0
VERTEX
  8
001
 62
               3
  5
57
 10
837.47900481605211
 20
824.58462328098517
 30
0.0
  0
VERTEX
  8
001
 62
               3
  5
58
 10
839.47900481605211
 20
825.73932328098499
 30
0.0
  0
VERTEX
  8
001
 62
               3
  5
59
 10
841.47900481605211
 20
824.58462328098517
 30
0.0
  0
VERTEX
  8
001
 62
               3
  5
5A
 10
841.47900481605211
 20
822.27522328098507
 30
0.0
  0
VERTEX
  8
001
 62
               3
  5
5B
 10
839.47900481605211
 20
821.12052328098503
 30
0.0
  0
VERTEX
  8
001
 62
               3
  5
5C
 10
837.47900481605211
 20
822.27522328098507
 30
0.0
  0
SEQEND
  8
001
  5
5D
  0
ENDBLK
  8
001
  5
5E
  0
BLOCK
  8
001
  5
60
  2
ETC-5
 70
               0
 10
0.0
 20
0.0
 30
0.0
  3
ETC-5
  0
POLYLINE
  8
001
  5
61
 66
               1
 10
0.0
 20
0.0
 30
0.0
  0
VERTEX
  8
001
  5
62
 10
435.69389972541364
 20
871.56392328098514
 30
0.0
  0
VERTEX
  8
001
  5
63
 10
435.69389972541364
 20
873.29592328098511
 30
0.0
  0
VERTEX
  8
001
  5
64
 10
434.19389972541364
 20
874.16192328098509
 30
0.0
  0
VERTEX
  8
001
  5
65
 10
432.69389972541364
 20
873.29592328098511
 30
0.0
  0
VERTEX
  8
001
  5
66
 10
432.69389972541364
 20
871.56392328098514
 30
0.0
  0
VERTEX
  8
001
  5
67
 10
434.19389972541364
 20
870.69782328098518
 30
0.0
  0
VERTEX
  8
001
  5
68
 10
435.69389972541364
 20
871.56392328098514
 30
0.0
  0
SEQEND
  8
001
  5
69
  0
ENDBLK
  8
001
  5
6A
  0
BLOCK
  8
001
  5
6C
  2
ETC-6
 70
               0
 10
0.0
 20
0.0
 30
0.0
  3
ETC-6
  0
POLYLINE
  8
001
  5
6D
 66
               1
 10
0.0
 20
0.0
 30
0.0
  0
VERTEX
  8
001
  5
6E
 10
477.69389972541364
 20
871.56392328098514
 30
0.0
  0
VERTEX
  8
001
  5
6F
 10
477.69389972541364
 20
873.29592328098511
 30
0.0
  0
VERTEX
  8
001
  5
70
 10
476.19389972541364
 20
874.16192328098509
 30
0.0
  0
VERTEX
  8
001
  5
71
 10
474.69389972541364
 20
873.29592328098511
 30
0.0
  0
VERTEX
  8
001
  5
72
 10
474.69389972541364
 20
871.56392328098514
 30
0.0
  0
VERTEX
  8
001
  5
73
 10
476.19389972541364
 20
870.69782328098518
 30
0.0
  0
VERTEX
  8
001
  5
74
 10
477.69389972541364
 20
871.56392328098514
 30
0.0
  0
SEQEND
  8
001
  5
75
  0
ENDBLK
  8
001
  5
76
  0
BLOCK
  8
001
  5
78
  2
ETC-7
 70
               0
 10
0.0
 20
0.0
 30
0.0
  3
ETC-7
  0
POLYLINE
  8
001
  5
79
 66
               1
 10
0.0
 20
0.0
 30
0.0
  0
VERTEX
  8
001
  5
7A
 10
460.69389972541364
 20
827.79592328098511
 30
0.0
  0
VERTEX
  8
001
  5
7B
 10
460.69389972541364
 20
826.06392328098514
 30
0.0
  0
VERTEX
  8
001
  5
7C
 10
462.19389972541364
 20
825.19782328098518
 30
0.0
  0
VERTEX
  8
001
  5
7D
 10
463.69389972541364
 20
826.06392328098514
 30
0.0
  0
VERTEX
  8
001
  5
7E
 10
463.69389972541364
 20
827.79592328098511
 30
0.0
  0
VERTEX
  8
001
  5
7F
 10
462.19389972541364
 20
828.66192328098509
 30
0.0
  0
VERTEX
  8
001
  5
80
 10
460.69389972541364
 20
827.79592328098511
 30
0.0
  0
SEQEND
  8
001
  5
81
  0
ENDBLK
  8
001
  5
82
  0
BLOCK
  8
001
  5
84
  2
ETC-8
 70
               0
 10
0.0
 20
0.0
 30
0.0
  3
ETC-8
  0
POLYLINE
  8
001
  5
85
 66
               1
 10
0.0
 20
0.0
 30
0.0
  0
VERTEX
  8
001
  5
86
 10
420.69389972541364
 20
827.79592328098511
 30
0.0
  0
VERTEX
  8
001
  5
87
 10
420.69389972541364
 20
826.06392328098514
 30
0.0
  0
VERTEX
  8
001
  5
88
 10
422.19389972541364
 20
825.19782328098518
 30
0.0
  0
VERTEX
  8
001
  5
89
 10
423.69389972541364
 20
826.06392328098514
 30
0.0
  0
VERTEX
  8
001
  5
8A
 10
423.69389972541364
 20
827.79592328098511
 30
0.0
  0
VERTEX
  8
001
  5
8B
 10
422.19389972541364
 20
828.66192328098509
 30
0.0
  0
VERTEX
  8
001
  5
8C
 10
420.69389972541364
 20
827.79592328098511
 30
0.0
  0
SEQEND
  8
001
  5
8D
  0
ENDBLK
  8
001
  5
8E
  0
BLOCK
  8
001
  5
90
  2
ETC-9
 70
               0
 10
0.0
 20
0.0
 30
0.0
  3
ETC-9
  0
POLYLINE
  8
001
 62
               3
  5
91
 66
               1
 10
0.0
 20
0.0
 30
0.0
  0
VERTEX
  8
001
 62
               3
  5
92
 10
885.47890481605214
 20
822.27522328098507
 30
0.0
  0
VERTEX
  8
001
 62
               3
  5
93
 10
885.47890481605214
 20
824.58462328098517
 30
0.0
  0
VERTEX
  8
001
 62
               3
  5
94
 10
883.47890481605214
 20
825.73932328098499
 30
0.0
  0
VERTEX
  8
001
 62
               3
  5
95
 10
881.47890481605214
 20
824.58462328098517
 30
0.0
  0
VERTEX
  8
001
 62
               3
  5
96
 10
881.47890481605214
 20
822.27522328098507
 30
0.0
  0
VERTEX
  8
001
 62
               3
  5
97
 10
883.47890481605214
 20
821.12052328098503
 30
0.0
  0
VERTEX
  8
001
 62
               3
  5
98
 10
885.47890481605214
 20
822.27522328098507
 30
0.0
  0
SEQEND
  8
001
  5
99
  0
ENDBLK
  8
001
  5
9A
  0
BLOCK
  8
001
  5
9C
  2
ETC-10
 70
               0
 10
0.0
 20
0.0
 30
0.0
  3
ETC-10
  0
POLYLINE
  8
001
 62
               3
  5
9D
 66
               1
 10
0.0
 20
0.0
 30
0.0
  0
VERTEX
  8
001
 62
               3
  5
9E
 10
890.47950481605221
 20
1046.2752232809851
 30
0.0
  0
VERTEX
  8
001
 62
               3
  5
9F
 10
890.47950481605221
 20
1048.5846232809852
 30
0.0
  0
VERTEX
  8
001
 62
               3
  5
A0
 10
888.47920481605229
 20
1049.739223280985
 30
0.0
  0
VERTEX
  8
001
 62
               3
  5
A1
 10
886.47920481605229
 20
1048.5846232809852
 30
0.0
  0
VERTEX
  8
001
 62
               3
  5
A2
 10
886.47920481605229
 20
1046.2752232809851
 30
0.0
  0
VERTEX
  8
001
 62
               3
  5
A3
 10
888.47920481605229
 20
1045.120523280985
 30
0.0
  0
VERTEX
  8
001
 62
               3
  5
A4
 10
890.47950481605221
 20
1046.2752232809851
 30
0.0
  0
SEQEND
  8
001
  5
A5
  0
ENDBLK
  8
001
  5
A6
  0
BLOCK
  8
001
  5
A8
  2
ETC-11
 70
               0
 10
0.0
 20
0.0
 30
0.0
  3
ETC-11
  0
POLYLINE
  8
001
 62
               3
  5
A9
 66
               1
 10
0.0
 20
0.0
 30
0.0
  0
VERTEX
  8
001
 62
               3
  5
AA
 10
832.47920481605229
 20
1046.275323280985
 30
0.0
  0
VERTEX
  8
001
 62
               3
  5
AB
 10
832.47920481605229
 20
1048.5846232809849
 30
0.0
  0
VERTEX
  8
001
 62
               3
  5
AC
 10
834.47920481605229
 20
1049.739323280985
 30
0.0
  0
VERTEX
  8
001
 62
               3
  5
AD
 10
836.47920481605229
 20
1048.5846232809849
 30
0.0
  0
VERTEX
  8
001
 62
               3
  5
AE
 10
836.47920481605229
 20
1046.275323280985
 30
0.0
  0
VERTEX
  8
001
 62
               3
  5
AF
 10
834.47920481605229
 20
1045.120523280985
 30
0.0
  0
VERTEX
  8
001
 62
               3
  5
B0
 10
832.47920481605229
 20
1046.275323280985
 30
0.0
  0
SEQEND
  8
001
  5
B1
  0
ENDBLK
  8
001
  5
B2
  0
BLOCK
  8
001
  5
B4
  2
ETC-12
 70
               0
 10
0.0
 20
0.0
 30
0.0
  3
ETC-12
  0
POLYLINE
  8
001
 62
               2
  5
B5
 66
               1
 10
0.0
 20
0.0
 30
0.0
  0
VERTEX
  8
001
 62
               2
  5
B6
 10
435.69389972541364
 20
691.56392328098514
 30
0.0
  0
VERTEX
  8
001
 62
               2
  5
B7
 10
435.69389972541364
 20
693.29592328098511
 30
0.0
  0
VERTEX
  8
001
 62
               2
  5
B8
 10
434.19389972541364
 20
694.16192328098509
 30
0.0
  0
VERTEX
  8
001
 62
               2
  5
B9
 10
432.69389972541364
 20
693.29592328098511
 30
0.0
  0
VERTEX
  8
001
 62
               2
  5
BA
 10
432.69389972541364
 20
691.56392328098514
 30
0.0
  0
VERTEX
  8
001
 62
               2
  5
BB
 10
434.19389972541364
 20
690.69782328098518
 30
0.0
  0
VERTEX
  8
001
 62
               2
  5
BC
 10
435.69389972541364
 20
691.56392328098514
 30
0.0
  0
SEQEND
  8
001
  5
BD
  0
ENDBLK
  8
001
  5
BE
  0
BLOCK
  8
001
  5
C0
  2
ETC-13
 70
               0
 10
0.0
 20
0.0
 30
0.0
  3
ETC-13
  0
POLYLINE
  8
001
 62
               2
  5
C1
 66
               1
 10
0.0
 20
0.0
 30
0.0
  0
VERTEX
  8
001
 62
               2
  5
C2
 10
420.69389972541364
 20
647.79592328098511
 30
0.0
  0
VERTEX
  8
001
 62
               2
  5
C3
 10
420.69389972541364
 20
646.06392328098514
 30
0.0
  0
VERTEX
  8
001
 62
               2
  5
C4
 10
422.19389972541364
 20
645.19782328098518
 30
0.0
  0
VERTEX
  8
001
 62
               2
  5
C5
 10
423.69389972541364
 20
646.06392328098514
 30
0.0
  0
VERTEX
  8
001
 62
               2
  5
C6
 10
423.69389972541364
 20
647.79592328098511
 30
0.0
  0
VERTEX
  8
001
 62
               2
  5
C7
 10
422.19389972541364
 20
648.66192328098509
 30
0.0
  0
VERTEX
  8
001
 62
               2
  5
C8
 10
420.69389972541364
 20
647.79592328098511
 30
0.0
  0
SEQEND
  8
001
  5
C9
  0
ENDBLK
  8
001
  5
CA
  0
BLOCK
  8
001
  5
CC
  2
ETC-14
 70
               0
 10
0.0
 20
0.0
 30
0.0
  3
ETC-14
  0
POLYLINE
  8
001
 62
               2
  5
CD
 66
               1
 10
0.0
 20
0.0
 30
0.0
  0
VERTEX
  8
001
 62
               2
  5
CE
 10
423.69389972541364
 20
646.06392328098514
 30
0.0
  0
VERTEX
  8
001
 62
               2
  5
CF
 10
423.69389972541364
 20
647.79592328098511
 30
0.0
  0
VERTEX
  8
001
 62
               2
  5
D0
 10
422.19389972541364
 20
648.66192328098509
 30
0.0
  0
VERTEX
  8
001
 62
               2
  5
D1
 10
420.69389972541364
 20
647.79592328098511
 30
0.0
  0
VERTEX
  8
001
 62
               2
  5
D2
 10
420.69389972541364
 20
646.06392328098514
 30
0.0
  0
VERTEX
  8
001
 62
               2
  5
D3
 10
422.19389972541364
 20
645.19782328098518
 30
0.0
  0
VERTEX
  8
001
 62
               2
  5
D4
 10
423.69389972541364
 20
646.06392328098514
 30
0.0
  0
SEQEND
  8
001
  5
D5
  0
ENDBLK
  8
001
  5
D6
  0
ENDSEC
  0
SECTION
  2
ENTITIES
  0
INSERT
  8
001
  6
BYBLOCK
 62
               0
  5
D7
  2
ETC-1
 10
0.0
 20
0.0
 30
0.0
  0
INSERT
  8
001
  6
BYBLOCK
 62
               0
  5
D8
  2
ETC-2
 10
0.0
 20
0.0
 30
0.0
  0
INSERT
  8
001
  6
BYBLOCK
 62
               0
  5
D9
  2
ETC-3
 10
0.0
 20
0.0
 30
0.0
  0
INSERT
  8
001
  6
BYBLOCK
 62
               0
  5
DA
  2
ETC-4
 10
0.0
 20
0.0
 30
0.0
  0
INSERT
  8
001
  6
BYBLOCK
 62
               0
  5
DB
  2
ETC-5
 10
0.0
 20
0.0
 30
0.0
  0
INSERT
  8
001
  6
BYBLOCK
 62
               0
  5
DC
  2
ETC-6
 10
0.0
 20
0.0
 30
0.0
  0
INSERT
  8
001
  6
BYBLOCK
 62
               0
  5
DD
  2
ETC-7
 10
0.0
 20
0.0
 30
0.0
  0
INSERT
  8
001
  6
BYBLOCK
 62
               0
  5
DE
  2
ETC-8
 10
0.0
 20
0.0
 30
0.0
  0
INSERT
  8
001
  6
BYBLOCK
 62
               0
  5
DF
  2
ETC-9
 10
0.0
 20
0.0
 30
0.0
  0
INSERT
  8
001
  6
BYBLOCK
 62
               0
  5
E0
  2
ETC-10
 10
0.0
 20
0.0
 30
0.0
  0
INSERT
  8
001
  6
BYBLOCK
 62
               0
  5
E1
  2
ETC-11
 10
0.0
 20
0.0
 30
0.0
  0
INSERT
  8
001
  6
BYBLOCK
 62
               0
  5
E2
  2
ETC-12
 10
0.0
 20
0.0
 30
0.0
  0
INSERT
  8
001
  6
BYBLOCK
 62
               0
  5
E3
  2
ETC-13
 10
0.0
 20
0.0
 30
0.0
  0
INSERT
  8
001
  6
BYBLOCK
 62
               0
  5
E4
  2
ETC-14
 10
0.0
 20
0.0
 30
0.0
  0
LINE
  8
001
 62
               3
  5
E5
 10
584.19389972541364
 20
792.92992328098512
 30
0.0
 11
584.19389972541364
 21
778.42992328098512
 31
0.0
  0
LINE
  8
001
 62
               3
  5
E6
 10
850.47900481605211
 20
784.42982328098515
 30
0.0
 11
850.47900481605211
 21
792.92982328098515
 31
0.0
  0
LINE
  8
001
 62
               3
  5
E7
 10
862.41470481605211
 20
792.92982328098515
 30
0.0
 11
850.47900481605211
 21
792.92982328098515
 31
0.0
  0
LINE
  8
001
 62
               3
  5
E8
 10
862.41470481605211
 20
795.92992328098512
 30
0.0
 11
850.47900481605211
 21
795.92992328098512
 31
0.0
  0
LINE
  8
001
  6
CENTER
  5
E9
 10
819.47900481605211
 20
821.33282328098517
 30
0.0
 11
819.47900481605211
 21
804.94122328098513
 31
0.0
  0
LINE
  8
001
  6
CENTER
  5
EA
 10
811.33950481605211
 20
813.42992328098512
 30
0.0
 11
827.73110481605204
 21
813.42992328098512
 31
0.0
  0
LINE
  8
001
 62
               3
  5
EB
 10
411.60679972541368
 20
799.42992328098512
 30
0.0
 11
411.60679972541368
 21
787.42992328098512
 31
0.0
  0
LINE
  8
001
 62
               3
  5
EC
 10
819.47900481605211
 20
819.42992328098512
 30
0.0
 11
822.17240481605199
 21
819.42992328098512
 31
0.0
  0
LINE
  8
001
 62
               3
  5
ED
 10
819.47900481605211
 20
807.42992328098512
 30
0.0
 11
845.47900481605211
 21
807.42992328098512
 31
0.0
  0
LINE
  8
001
 62
               3
  5
EE
 10
884.47900481605211
 20
813.19152328098517
 30
0.0
 11
884.47900481605211
 21
816.42992328098512
 31
0.0
  0
LINE
  8
001
 62
               3
  5
EF
 10
851.47900481605211
 20
783.42982328098515
 30
0.0
 11
864.8600048160522
 21
783.42982328098515
 31
0.0
  0
LINE
  8
001
 62
               3
  5
F0
 10
850.47900481605211
 20
802.42992328098512
 30
0.0
 11
850.47900481605211
 21
795.92992328098512
 31
0.0
  0
LINE
  8
001
 62
               3
  5
F1
 10
731.65659972541368
 20
780.3299232809851
 30
0.0
 11
731.65659972541368
 21
808.52992328098503
 31
0.0
  0
LINE
  8
001
 62
               3
  5
F2
 10
678.15669972541366
 20
782.42992328098512
 30
0.0
 11
678.15669972541366
 21
806.42992328098512
 31
0.0
  0
LINE
  8
001
 62
               3
  5
F3
 10
604.19389972541364
 20
782.42992328098512
 30
0.0
 11
714.15659972541368
 21
782.42992328098512
 31
0.0
  0
LINE
  8
001
 62
               3
  5
F4
 10
564.19389972541364
 20
806.42992328098512
 30
0.0
 11
564.19389972541364
 21
782.42992328098512
 31
0.0
  0
LINE
  8
001
 62
               3
  5
F5
 10
534.19389972541364
 20
790.42982328098515
 30
0.0
 11
534.19389972541364
 21
798.42992328098512
 31
0.0
  0
LINE
  8
001
 62
               3
  5
F6
 10
584.19389972541364
 20
782.42992328098512
 30
0.0
 11
564.19389972541364
 21
782.42992328098512
 31
0.0
  0
LINE
  8
001
 62
               3
  5
F7
 10
584.19389972541364
 20
806.42992328098512
 30
0.0
 11
564.19389972541364
 21
806.42992328098512
 31
0.0
  0
LINE
  8
001
  6
CENTER
  5
F8
 10
757.44139728398466
 20
794.42992328098512
 30
0.0
 11
528.69379972541367
 21
794.42992328098512
 31
0.0
  0
LINE
  8
001
 62
               3
  5
F9
 10
564.19389972541364
 20
798.92992328098512
 30
0.0
 11
534.69389972541364
 21
798.92972328098506
 31
0.0
  0
LINE
  8
001
 62
               3
  5
FA
 10
564.19389972541364
 20
789.92992328098512
 30
0.0
 11
534.69389972541364
 21
789.92972328098517
 31
0.0
  0
LINE
  8
001
 62
               3
  5
FB
 10
534.69389972541364
 20
789.92972328098517
 30
0.0
 11
534.69389972541364
 21
798.92972328098517
 31
0.0
  0
LINE
  8
001
 62
               3
  5
FC
 10
534.69389972541364
 20
798.92972328098506
 30
0.0
 11
534.19389972541364
 21
798.42992328098512
 31
0.0
  0
LINE
  8
001
 62
               3
  5
FD
 10
534.69389972541364
 20
789.92972328098517
 30
0.0
 11
534.19389972541364
 21
790.42982328098515
 31
0.0
  0
LINE
  8
001
 62
               3
  5
FE
 10
409.48449972541368
 20
787.4300232809851
 30
0.0
 11
411.60679972541368
 21
787.42992328098512
 31
0.0
  0
LINE
  8
001
 62
               3
  5
FF
 10
714.15659972541368
 20
781.42992328098512
 30
0.0
 11
714.15659972541368
 21
807.42992328098512
 31
0.0
  0
LINE
  8
001
 62
               3
  5
100
 10
733.15659972541368
 20
807.02992328098514
 30
0.0
 11
733.15659972541368
 21
781.82992328098521
 31
0.0
  0
LINE
  8
001
 62
               3
  5
101
 10
731.65659972541368
 20
780.3299232809851
 30
0.0
 11
723.65659972541368
 21
780.3299232809851
 31
0.0
  0
LINE
  8
001
 62
               3
  5
102
 10
731.65659972541368
 20
808.52992328098514
 30
0.0
 11
723.65659972541368
 21
808.52992328098514
 31
0.0
  0
LINE
  8
001
 62
               3
  5
103
 10
723.65659972541368
 20
808.52992328098514
 30
0.0
 11
723.65659972541368
 21
780.32992328098521
 31
0.0
  0
LINE
  8
001
 62
               3
  5
104
 10
722.33659972541375
 20
780.92992328098512
 30
0.0
 11
722.33659972541375
 21
807.92992328098512
 31
0.0
  0
LINE
  8
001
 62
               3
  5
105
 10
714.15659972541368
 20
807.42992328098512
 30
0.0
 11
723.65659972541368
 21
808.01060787756205
 31
0.0
  0
LINE
  8
001
 62
               3
  5
106
 10
714.15659972541368
 20
781.42992328098512
 30
0.0
 11
723.65659972541368
 21
780.84923868440808
 31
0.0
  0
LINE
  8
001
  5
107
 10
612.19389972541364
 20
810.42992328098512
 30
0.0
 11
632.19389972541364
 21
810.42992328098512
 31
0.0
  0
LINE
  8
001
  5
108
 10
612.19389972541364
 20
810.92992328098512
 30
0.0
 11
632.19389972541364
 21
810.92992328098512
 31
0.0
  0
LINE
  8
001
  5
109
 10
612.19389972541364
 20
815.92992328098512
 30
0.0
 11
632.19389972541364
 21
815.92992328098512
 31
0.0
  0
LINE
  8
001
  5
10A
 10
612.19389972541364
 20
816.42992328098512
 30
0.0
 11
632.19389972541364
 21
816.42992328098512
 31
0.0
  0
LINE
  8
001
  5
10B
 10
612.19389972541364
 20
808.58932328098513
 30
0.0
 11
612.19389972541364
 21
818.27052328098512
 31
0.0
  0
LINE
  8
001
  5
10C
 10
607.19389972541364
 20
807.67992328098512
 30
0.0
 11
611.66899972541353
 21
807.67992328098512
 31
0.0
  0
LINE
  8
001
 62
               3
  5
10D
 10
607.19389972541364
 20
819.1800232809851
 30
0.0
 11
607.19389972541364
 21
807.67992328098512
 31
0.0
  0
LINE
  8
001
  5
10E
 10
611.66899972541353
 20
807.67992328098512
 30
0.0
 11
612.19389972541364
 21
808.58932328098513
 31
0.0
  0
LINE
  8
001
  5
10F
 10
611.66899972541353
 20
810.54902328098512
 30
0.0
 11
607.19389972541364
 21
810.54902328098512
 31
0.0
  0
LINE
  8
001
  5
110
 10
611.66899972541353
 20
819.17992328098512
 30
0.0
 11
612.19389972541364
 21
818.27052328098512
 31
0.0
  0
LINE
  8
001
  5
111
 10
611.66899972541353
 20
816.31072328098514
 30
0.0
 11
607.19389972541364
 21
816.31072328098514
 31
0.0
  0
LINE
  8
001
 62
               3
  5
112
 10
601.19389972541364
 20
893.42992328098512
 30
0.0
 11
601.19389972541364
 21
912.42992328098512
 31
0.0
  0
LINE
  8
001
 62
               3
  5
113
 10
608.19389972541364
 20
897.42992328098512
 30
0.0
 11
608.19389972541364
 21
912.42992328098512
 31
0.0
  0
LINE
  8
001
 62
               3
  5
114
 10
608.19389972541364
 20
912.42992328098512
 30
0.0
 11
601.19389972541364
 21
912.42992328098512
 31
0.0
  0
LINE
  8
001
  5
115
 10
582.19389972541364
 20
810.42992328098512
 30
0.0
 11
582.19389972541364
 21
816.42992328098512
 31
0.0
  0
LINE
  8
001
  5
116
 10
632.19389972541364
 20
810.42992328098512
 30
0.0
 11
632.19389972541364
 21
816.42992328098512
 31
0.0
  0
LINE
  8
001
  6
CENTER
  5
117
 10
570.19389972541364
 20
813.42992328098512
 30
0.0
 11
634.19389972541364
 21
813.42992328098512
 31
0.0
  0
LINE
  8
001
  5
118
 10
580.19389972541364
 20
810.42992328098512
 30
0.0
 11
600.19389972541364
 21
810.42992328098512
 31
0.0
  0
LINE
  8
001
  5
119
 10
580.19389972541364
 20
816.42992328098512
 30
0.0
 11
600.19389972541364
 21
816.42992328098512
 31
0.0
  0
LINE
  8
001
  5
11A
 10
582.19389972541364
 20
810.92992328098512
 30
0.0
 11
600.19389972541364
 21
810.92992328098512
 31
0.0
  0
LINE
  8
001
  5
11B
 10
572.19389972541364
 20
818.27052328098512
 30
0.0
 11
572.19389972541364
 21
808.58932328098513
 31
0.0
  0
LINE
  8
001
  5
11C
 10
580.19389972541364
 20
819.17992328098512
 30
0.0
 11
572.71909972541368
 21
819.17992328098512
 31
0.0
  0
LINE
  8
001
  5
11D
 10
580.19389972541364
 20
807.67972328098517
 30
0.0
 11
580.19389972541364
 21
819.17992328098512
 31
0.0
  0
LINE
  8
001
  5
11E
 10
572.71909972541368
 20
819.17992328098512
 30
0.0
 11
572.19389972541364
 21
818.27052328098512
 31
0.0
  0
LINE
  8
001
  5
11F
 10
572.71909972541368
 20
816.31072328098514
 30
0.0
 11
580.19389972541364
 21
816.31072328098514
 31
0.0
  0
LINE
  8
001
  5
120
 10
572.71909972541368
 20
807.67992328098512
 30
0.0
 11
572.19389972541364
 21
808.58932328098513
 31
0.0
  0
LINE
  8
001
  5
121
 10
572.71909972541368
 20
810.54902328098512
 30
0.0
 11
580.19389972541364
 21
810.54902328098512
 31
0.0
  0
LINE
  8
001
  5
122
 10
582.19389972541364
 20
815.92992328098512
 30
0.0
 11
600.19389972541364
 21
815.92992328098512
 31
0.0
  0
LINE
  8
001
  5
123
 10
580.19389972541364
 20
807.67972328098517
 30
0.0
 11
572.71909972541368
 21
807.67992328098512
 31
0.0
  0
LINE
  8
001
 62
               3
  5
124
 10
604.19389972541364
 20
807.42992328098512
 30
0.0
 11
604.19389972541364
 21
795.92992328098512
 31
0.0
  0
LINE
  8
001
  6
CENTER
  5
125
 10
597.78699972541369
 20
906.42992328098512
 30
0.0
 11
612.34139972541368
 21
906.42992328098512
 31
0.0
  0
LINE
  8
001
 62
               3
  5
126
 10
607.19389972541364
 20
807.42992328098512
 30
0.0
 11
600.19389972541364
 21
807.42992328098512
 31
0.0
  0
LINE
  8
001
 62
               3
  5
127
 10
600.19389972541364
 20
819.42992328098512
 30
0.0
 11
607.19389972541364
 21
819.42992328098512
 31
0.0
  0
LINE
  8
001
 62
               3
  5
128
 10
600.19389972541364
 20
807.42992328098512
 30
0.0
 11
600.19389972541364
 21
819.42992328098512
 31
0.0
  0
LINE
  8
001
 62
               3
  5
129
 10
607.19389972541364
 20
807.42992328098512
 30
0.0
 11
607.19389972541364
 21
819.42992328098512
 31
0.0
  0
LINE
  8
001
 62
               3
  5
12A
 10
604.19389972541364
 20
806.42992328098512
 30
0.0
 11
714.15659972541368
 21
806.42992328098512
 31
0.0
  0
LINE
  8
001
 62
               3
  5
12B
 10
604.19389972541364
 20
778.42992328098512
 30
0.0
 11
584.19389972541364
 21
778.42992328098512
 31
0.0
  0
LINE
  8
001
  6
CENTER
  5
12C
 10
892.73150481605217
 20
794.42992328098512
 30
0.0
 11
847.47890481605214
 21
794.42982328098515
 31
0.0
  0
LINE
  8
001
 62
               3
  5
12D
 10
828.7065048160523
 20
807.65342328098518
 30
0.0
 11
828.7662048160521
 21
807.42992328098512
 31
0.0
  0
LINE
  8
001
 62
               3
  5
12E
 10
838.5004048160522
 20
803.20642328098518
 30
0.0
 11
845.88320481605228
 21
775.65342328098518
 31
0.0
  0
LINE
  8
001
 62
               3
  5
12F
 10
897.84250481605227
 20
817.58782328098516
 30
0.0
 11
894.21850481605202
 21
776.16842328098517
 31
0.0
  0
LINE
  8
001
  6
CENTER
  5
130
 10
876.47890481605214
 20
810.33282328098517
 30
0.0
 11
876.47900481605211
 21
777.94122328098513
 31
0.0
  0
LINE
  8
001
 62
               3
  5
131
 10
831.60400481605211
 20
805.42992328098512
 30
0.0
 11
835.60270481605221
 21
805.42992328098512
 31
0.0
  0
LINE
  8
001
 62
               3
  5
132
 10
848.78090481605227
 20
773.42992328098512
 30
0.0
 11
891.23050481605219
 21
773.42992328098512
 31
0.0
  0
LINE
  8
001
  6
CENTER
  5
133
 10
15.947943304492469
 20
860.42992328098512
 30
0.0
 11
733.19389972541364
 21
860.42992328098512
 31
0.0
  0
LINE
  8
001
  5
134
 10
607.19389972541364
 20
819.1800232809851
 30
0.0
 11
611.66899972541353
 21
819.17992328098512
 31
0.0
  0
LINE
  8
001
 62
               3
  5
135
 10
397.78759972541377
 20
805.4300232809851
 30
0.0
 11
426.48259972541371
 21
805.42992328098512
 31
0.0
  0
LINE
  8
001
 62
               3
  5
136
 10
444.49359972541367
 20
823.42992328098512
 30
0.0
 11
620.19389972541364
 21
823.42992328098512
 31
0.0
  0
LINE
  8
001
 62
               3
  5
137
 10
429.23749972541373
 20
801.36012328098514
 30
0.0
 11
429.38839972541371
 21
805.67992328098512
 31
0.0
  0
LINE
  8
001
 62
               3
  5
138
 10
584.19389972541364
 20
823.42992328098512
 30
0.0
 11
584.19389972541364
 21
816.42992328098512
 31
0.0
  0
LINE
  8
001
 62
               3
  5
139
 10
409.29159972541368
 20
776.37752328098509
 30
0.0
 11
409.6596997254137
 21
797.46482328098512
 31
0.0
  0
LINE
  8
001
 62
               3
  5
13A
 10
411.65939972541366
 20
799.42992328098512
 30
0.0
 11
427.23869972541365
 21
799.42992328098512
 31
0.0
  0
LINE
  8
001
 62
               3
  5
13B
 10
401.80219972541374
 20
773.42992328098512
 30
0.0
 11
406.29209972541366
 21
773.42992328098512
 31
0.0
  0
LINE
  8
001
 62
               3
  5
13C
 10
398.80399972541375
 20
776.32522328098514
 30
0.0
 11
397.22769972541369
 21
821.46482328098512
 31
0.0
  0
LINE
  8
001
 62
               3
  5
13D
 10
604.19389972541364
 20
823.42992328098512
 30
0.0
 11
604.19389972541364
 21
819.42992328098512
 31
0.0
  0
LINE
  8
001
 62
               3
  5
13E
 10
401.19399972541362
 20
893.42992328098512
 30
0.0
 11
419.69389972541364
 21
893.42992328098512
 31
0.0
  0
LINE
  8
001
  5
13F
 10
396.22829972541365
 20
822.42992328098512
 30
0.0
 11
396.19399972541362
 21
822.42992328098512
 31
0.0
  0
LINE
  8
001
 62
               3
  5
140
 10
608.19389972541364
 20
897.42992328098512
 30
0.0
 11
620.19389972541364
 21
897.42992328098512
 31
0.0
  0
LINE
  8
001
 62
               3
  5
141
 10
397.19399972541362
 20
897.42992328098512
 30
0.0
 11
396.19399972541362
 21
897.42992328098512
 31
0.0
  0
LINE
  8
001
 62
               3
  5
142
 10
620.19389972541364
 20
897.42992328098512
 30
0.0
 11
620.19389972541364
 21
816.42992328098512
 31
0.0
  0
LINE
  8
001
 62
               3
  5
143
 10
396.19399972541362
 20
897.42992328098512
 30
0.0
 11
396.19399972541362
 21
822.42992328098512
 31
0.0
  0
LINE
  8
001
 62
               3
  5
144
 10
604.19389972541364
 20
792.92992328098512
 30
0.0
 11
604.19389972541364
 21
778.42992328098512
 31
0.0
  0
LINE
  8
001
 62
               3
  5
145
 10
862.97890481605214
 20
779.92062328098507
 30
0.0
 11
862.97890481605214
 21
783.42982328098515
 31
0.0
  0
LINE
  8
001
 62
               3
  5
146
 10
855.47890481605214
 20
779.42982328098515
 30
0.0
 11
860.47890481605214
 21
779.42982328098515
 31
0.0
  0
LINE
  8
001
 62
               3
  5
147
 10
852.97890481605214
 20
783.42982328098515
 30
0.0
 11
852.97890481605214
 21
779.92062328098518
 31
0.0
  0
LINE
  8
001
 62
               3
  5
148
 10
857.97890481605214
 20
779.92062328098507
 30
0.0
 11
857.97890481605214
 21
783.42982328098515
 31
0.0
  0
LINE
  8
001
 62
               3
  5
149
 10
860.97900481605211
 20
792.92982328098515
 30
0.0
 11
860.97900481605211
 21
795.92992328098512
 31
0.0
  0
LINE
  8
001
 62
               3
  5
14A
 10
854.97900481605211
 20
792.92982328098515
 30
0.0
 11
854.97900481605211
 21
795.92992328098512
 31
0.0
  0
LINE
  8
001
 62
               3
  5
14B
 10
860.47900481605211
 20
792.92982328098515
 30
0.0
 11
860.47900481605211
 21
795.92992328098512
 31
0.0
  0
LINE
  8
001
 62
               3
  5
14C
 10
855.47900481605211
 20
792.92982328098515
 30
0.0
 11
855.47900481605211
 21
795.92992328098512
 31
0.0
  0
LINE
  8
001
 62
               3
  5
14D
 10
723.19389972541364
 20
1239.1393224470667
 30
0.0
 11
723.65649972541371
 21
1239.1393224470667
 31
0.0
  0
LINE
  8
001
 62
               4
  5
14E
 10
811.47900481605211
 20
917.25842328098508
 30
0.0
 11
812.89320481605205
 21
915.84422328098503
 31
0.0
  0
LINE
  8
001
 62
               4
  5
14F
 10
815.39010481605214
 20
921.16942328098514
 30
0.0
 11
811.47900481605211
 21
917.2584232809852
 31
0.0
  0
LINE
  8
001
 62
               4
  5
150
 10
816.1448048160521
 20
919.09572328098511
 30
0.0
 11
812.89320481605205
 21
915.84422328098503
 31
0.0
  0
LINE
  8
001
 62
               3
  5
151
 10
723.19389972541364
 20
1212.1393224470667
 30
0.0
 11
723.65649972541371
 21
1212.1393224470667
 31
0.0
  0
LINE
  8
001
 62
               4
  5
152
 10
911.47950481605221
 20
915.19242328098517
 30
0.0
 11
906.44950481605224
 21
918.09622328098521
 31
0.0
  0
LINE
  8
001
 62
               4
  5
153
 10
910.47950481605221
 20
913.46032328098511
 30
0.0
 11
905.75450481605208
 21
916.18782328098519
 31
0.0
  0
LINE
  8
001
 62
               4
  5
154
 10
912.30750481605219
 20
866.42982328098515
 30
0.0
 11
905.47950481605221
 21
859.60142328098516
 31
0.0
  0
LINE
  8
001
 62
               4
  5
155
 10
910.8935048160522
 20
867.84412328098517
 30
0.0
 11
905.47950481605221
 21
862.42992328098512
 31
0.0
  0
LINE
  8
001
 62
               4
  5
156
 10
913.47950481605221
 20
869.25822328098513
 30
0.0
 11
913.47950481605221
 21
911.72832328098514
 31
0.0
  0
LINE
  8
001
  5
157
 10
482.19389972541364
 20
824.42992328098512
 30
0.0
 11
482.19389972541364
 21
871.42992328098512
 31
0.0
  0
LINE
  8
001
 62
               4
  5
158
 10
911.47950481605221
 20
869.25832328098511
 30
0.0
 11
911.47950481605221
 21
911.72832328098514
 31
0.0
  0
LINE
  8
001
 62
               3
  5
159
 10
723.65659972541368
 20
1239.7392224470668
 30
0.0
 11
723.65659972541368
 21
1211.5392224470668
 31
0.0
  0
LINE
  8
001
 62
               4
  5
15A
 10
809.47900481605211
 20
822.89402328098515
 30
0.0
 11
809.47900481605211
 21
825.54320193503702
 31
0.0
  0
LINE
  8
001
 62
               3
  5
15B
 10
731.65659972541368
 20
1239.7392224470668
 30
0.0
 11
723.65659972541368
 21
1239.7392224470668
 31
0.0
  0
LINE
  8
001
 62
               4
  5
15C
 10
807.47900481605211
 20
806.75222328098516
 30
0.0
 11
807.47900481605211
 21
826.69790247341621
 31
0.0
  0
LINE
  8
001
 62
               3
  5
15D
 10
731.65659972541368
 20
1211.5392224470668
 30
0.0
 11
723.65659972541368
 21
1211.5392224470668
 31
0.0
  0
LINE
  8
001
 62
               4
  5
15E
 10
809.59970481605228
 20
806.06822328098508
 30
0.0
 11
821.00000481605207
 21
774.74582328098506
 31
0.0
  0
LINE
  8
001
 62
               4
  5
15F
 10
900.47950481605221
 20
775.42992328098512
 30
0.0
 11
900.47950481605221
 21
819.18292328098516
 31
0.0
  0
LINE
  8
001
 62
               4
  5
160
 10
809.47900481605211
 20
806.75222328098516
 30
0.0
 11
809.47900481605211
 21
819.42992328098512
 31
0.0
  0
LINE
  8
001
 62
               4
  5
161
 10
822.8794048160521
 20
773.42992328098512
 30
0.0
 11
896.47950481605221
 21
773.42992328098512
 31
0.0
  0
LINE
  8
001
 62
               4
  5
162
 10
898.47950481605221
 20
775.42992328098512
 30
0.0
 11
898.47950481605221
 21
817.89732328098512
 31
0.0
  0
LINE
  8
001
 62
               4
  5
163
 10
819.12070481605201
 20
774.0618232809851
 30
0.0
 11
807.72030481605202
 21
805.38412328098502
 31
0.0
  0
LINE
  8
001
 62
               4
  5
164
 10
822.87930481605213
 20
771.42992328098512
 30
0.0
 11
896.47950481605221
 21
771.42992328098512
 31
0.0
  0
LINE
  8
001
 62
               3
  5
165
 10
733.15659972541368
 20
1238.2392224470668
 30
0.0
 11
733.15659972541368
 21
1213.0392224470668
 31
0.0
  0
LINE
  8
001
 62
               3
  5
166
 10
731.65659972541368
 20
1211.5392224470668
 30
0.0
 11
731.65659972541368
 21
1239.7392224470668
 31
0.0
  0
LINE
  8
001
  6
CENTER
  5
167
 10
756.80437494634202
 20
1225.6394158577855
 30
0.0
 11
718.19359972541372
 21
1225.6392224470667
 31
0.0
  0
LINE
  8
001
 62
               4
  5
168
 10
407.19399972541362
 20
914.42992328098512
 30
0.0
 11
612.19389972541364
 21
914.42992328098512
 31
0.0
  0
LINE
  8
001
 62
               3
  5
169
 10
591.19389972541364
 20
792.92992328098512
 30
0.0
 11
591.19389972541364
 21
795.92992328098512
 31
0.0
  0
LINE
  8
001
 62
               3
  5
16A
 10
597.19389972541364
 20
792.92992328098512
 30
0.0
 11
597.19389972541364
 21
795.92992328098512
 31
0.0
  0
LINE
  8
001
 62
               3
  5
16B
 10
588.44389972541364
 20
783.42982328098515
 30
0.0
 11
599.94389972541364
 21
783.42982328098515
 31
0.0
  0
LINE
  8
001
 62
               3
  5
16C
 10
589.29389972541378
 20
779.42982328098515
 30
0.0
 11
599.09389972541373
 21
779.42982328098515
 31
0.0
  0
LINE
  8
001
  6
DASHED
 62
               3
  5
16D
 10
110.39399972541366
 20
1065.307023280985
 30
0.0
 11
93.693999725413619
 21
1064.6744232809849
 31
0.0
  0
LINE
  8
001
 62
               3
  5
16E
 10
456.69389972541364
 20
893.42992328098512
 30
0.0
 11
604.19389972541364
 21
893.42992328098512
 31
0.0
  0
LINE
  8
001
 62
               3
  5
16F
 10
430.69389972541364
 20
893.42992328098512
 30
0.0
 11
445.69389972541364
 21
893.42992328098512
 31
0.0
  0
LINE
  8
001
  6
DASHED
 62
               3
  5
170
 10
93.693999725413619
 20
1064.6744232809851
 30
0.0
 11
93.693999725413619
 21
1056.1853232809851
 31
0.0
  0
LINE
  8
001
  6
DASHED
 62
               3
  5
171
 10
110.39399972541366
 20
1055.552723280985
 30
0.0
 11
93.693999725413619
 21
1056.1853232809849
 31
0.0
  0
LINE
  8
001
 62
               3
  5
172
 10
588.44389972541364
 20
783.42982328098515
 30
0.0
 11
588.44389972541364
 21
779.92062328098518
 31
0.0
  0
LINE
  8
001
 62
               3
  5
173
 10
589.29389972541378
 20
779.42982328098515
 30
0.0
 11
588.44389972541364
 21
779.92062328098518
 31
0.0
  0
LINE
  8
001
 62
               3
  5
174
 10
599.94389972541364
 20
779.92062328098507
 30
0.0
 11
599.09389972541373
 21
779.42982328098515
 31
0.0
  0
LINE
  8
001
 62
               3
  5
175
 10
591.30709972541365
 20
783.42982328098515
 30
0.0
 11
591.30709972541365
 21
779.92062328098518
 31
0.0
  0
LINE
  8
001
 62
               3
  5
176
 10
597.08069972541364
 20
783.42982328098515
 30
0.0
 11
597.08079972541384
 21
779.92062328098518
 31
0.0
  0
LINE
  8
001
 62
               3
  5
177
 10
599.94389972541364
 20
783.42982328098515
 30
0.0
 11
599.94389972541364
 21
779.92062328098518
 31
0.0
  0
LINE
  8
001
 62
               3
  5
178
 10
584.19389972541364
 20
783.42982328098515
 30
0.0
 11
604.19389972541364
 21
783.42982328098515
 31
0.0
  0
LINE
  8
001
 62
               3
  5
179
 10
109.39399972541366
 20
1049.4299232809851
 30
0.0
 11
109.39399972541366
 21
1071.4298232809851
 31
0.0
  0
LINE
  8
001
 62
               3
  5
17A
 10
596.69389972541364
 20
792.92992328098512
 30
0.0
 11
596.69389972541364
 21
795.92992328098512
 31
0.0
  0
LINE
  8
001
 62
               3
  5
17B
 10
591.69389972541364
 20
792.92992328098512
 30
0.0
 11
591.69389972541364
 21
795.92992328098512
 31
0.0
  0
LINE
  8
001
 62
               3
  5
17C
 10
584.19389972541364
 20
795.92992328098512
 30
0.0
 11
604.19389972541364
 21
795.92992328098512
 31
0.0
  0
LINE
  8
001
 62
               3
  5
17D
 10
584.19389972541364
 20
792.92992328098512
 30
0.0
 11
604.19389972541364
 21
792.92992328098512
 31
0.0
  0
LINE
  8
001
 62
               3
  5
17E
 10
104.39399972541366
 20
1049.4299232809851
 30
0.0
 11
104.39399972541366
 21
1071.4299232809851
 31
0.0
  0
LINE
  8
001
 62
               3
  5
17F
 10
606.19409972541382
 20
819.42992328098512
 30
0.0
 11
606.19389972541364
 21
895.42992328098512
 31
0.0
  0
LINE
  8
001
 62
               3
  5
180
 10
78.393999725413664
 20
1048.4299232809851
 30
0.0
 11
78.393999725413664
 21
1072.4299232809851
 31
0.0
  0
LINE
  8
001
 62
               3
  5
181
 10
90.393999725413664
 20
1048.4298232809851
 30
0.0
 11
90.393999725413664
 21
1072.4298232809851
 31
0.0
  0
LINE
  8
001
 62
               3
  5
182
 10
110.39399972541366
 20
1053.9299232809851
 30
0.0
 11
109.89399972541366
 21
1053.4299232809851
 31
0.0
  0
LINE
  8
001
 62
               3
  5
183
 10
109.89399972541366
 20
1067.4299232809849
 30
0.0
 11
110.39399972541366
 21
1066.9298232809849
 31
0.0
  0
LINE
  8
001
 62
               3
  5
184
 10
109.39399972541366
 20
1049.4299232809851
 30
0.0
 11
108.89399972541366
 21
1048.9299232809851
 31
0.0
  0
LINE
  8
001
 62
               3
  5
185
 10
66.393999725413664
 20
1055.4299232809849
 30
0.0
 11
62.393999725413664
 21
1056.9299232809849
 31
0.0
  0
LINE
  8
001
 62
               3
  5
186
 10
66.393999725413664
 20
1065.4299232809849
 30
0.0
 11
62.393999725413664
 21
1063.9299232809849
 31
0.0
  0
LINE
  8
001
 62
               3
  5
187
 10
104.89399972541366
 20
1071.9299232809849
 30
0.0
 11
104.39399972541366
 21
1071.4299232809849
 31
0.0
  0
LINE
  8
001
 62
               3
  5
188
 10
108.89399972541366
 20
1071.9299232809849
 30
0.0
 11
109.39399972541366
 21
1071.4298232809849
 31
0.0
  0
LINE
  8
001
 62
               3
  5
189
 10
104.39399972541366
 20
1049.4299232809851
 30
0.0
 11
104.89399972541366
 21
1048.9299232809851
 31
0.0
  0
LINE
  8
001
 62
               3
  5
18A
 10
104.89399972541366
 20
1048.9299232809851
 30
0.0
 11
108.89399972541366
 21
1048.9299232809851
 31
0.0
  0
LINE
  8
001
 62
               3
  5
18B
 10
104.89399972541366
 20
1071.9299232809849
 30
0.0
 11
108.89399972541366
 21
1071.9299232809849
 31
0.0
  0
LINE
  8
001
 62
               3
  5
18C
 10
97.893999725413664
 20
1048.9299232809851
 30
0.0
 11
99.393999725413664
 21
1051.4299232809851
 31
0.0
  0
LINE
  8
001
 62
               3
  5
18D
 10
97.893999725413664
 20
1071.9299232809849
 30
0.0
 11
99.393999725413664
 21
1069.4299232809849
 31
0.0
  0
LINE
  8
001
 62
               3
  5
18E
 10
109.39409972541364
 20
1067.4299232809849
 30
0.0
 11
109.89399972541366
 21
1067.4299232809849
 31
0.0
  0
LINE
  8
001
 62
               3
  5
18F
 10
109.39409972541364
 20
1053.4299232809851
 30
0.0
 11
109.89399972541366
 21
1053.4299232809851
 31
0.0
  0
LINE
  8
001
 62
               3
  5
190
 10
99.393999725413664
 20
1051.4299232809851
 30
0.0
 11
104.39399972541366
 21
1051.4299232809851
 31
0.0
  0
LINE
  8
001
 62
               3
  5
191
 10
99.393999725413664
 20
1069.4299232809849
 30
0.0
 11
104.39399972541366
 21
1069.4299232809849
 31
0.0
  0
LINE
  8
001
 62
               3
  5
192
 10
66.393999725413664
 20
1052.4299232809851
 30
0.0
 11
78.393999725413664
 21
1048.4299232809851
 31
0.0
  0
LINE
  8
001
 62
               3
  5
193
 10
66.393999725413664
 20
1068.4299232809849
 30
0.0
 11
78.393999725413664
 21
1072.4299232809849
 31
0.0
  0
LINE
  8
001
 62
               3
  5
194
 10
90.394099725413639
 20
1071.9299232809849
 30
0.0
 11
97.893999725413664
 21
1071.9299232809849
 31
0.0
  0
LINE
  8
001
 62
               3
  5
195
 10
90.394099725413639
 20
1048.9299232809851
 30
0.0
 11
97.893999725413664
 21
1048.9299232809851
 31
0.0
  0
LINE
  8
001
 62
               3
  5
196
 10
99.393999725413664
 20
1051.4299232809851
 30
0.0
 11
99.393999725413664
 21
1069.4299232809851
 31
0.0
  0
LINE
  8
001
 62
               3
  5
197
 10
97.893999725413664
 20
1048.9299232809851
 30
0.0
 11
97.893999725413664
 21
1071.9299232809851
 31
0.0
  0
LINE
  8
001
 62
               3
  5
198
 10
62.393999725413664
 20
1056.9299232809849
 30
0.0
 11
62.393999725413664
 21
1063.9299232809849
 31
0.0
  0
LINE
  8
001
 62
               3
  5
199
 10
66.393999725413664
 20
1052.4299232809851
 30
0.0
 11
66.393999725413664
 21
1068.4299232809851
 31
0.0
  0
LINE
  8
001
 62
               3
  5
19A
 10
78.393999725413664
 20
1072.4299232809849
 30
0.0
 11
90.393999725413664
 21
1072.4298232809849
 31
0.0
  0
LINE
  8
001
 62
               3
  5
19B
 10
78.393999725413664
 20
1048.4299232809851
 30
0.0
 11
90.393999725413664
 21
1048.4298232809851
 31
0.0
  0
LINE
  8
001
 62
               3
  5
19C
 10
115.19399972541362
 20
884.42972328098517
 30
0.0
 11
115.19399972541362
 21
836.42982328098515
 31
0.0
  0
LINE
  8
001
 62
               3
  5
19D
 10
115.19399972541362
 20
884.42972328098517
 30
0.0
 11
116.92634612541363
 21
885.42992328098512
 31
0.0
  0
LINE
  8
001
 62
               3
  5
19E
 10
115.19399972541362
 20
836.42982328098515
 30
0.0
 11
116.92582652541375
 21
835.42992328098512
 31
0.0
  0
LINE
  8
001
 62
               3
  5
19F
 10
116.9259997254137
 20
835.42982328098515
 30
0.0
 11
116.9259997254137
 21
885.42972328098517
 31
0.0
  0
LINE
  8
001
 62
               3
  5
1A0
 10
112.39409972541364
 20
868.82962328098517
 30
0.0
 11
114.19399972541362
 21
868.82962328098517
 31
0.0
  0
LINE
  8
001
 62
               3
  5
1A1
 10
112.19399972541362
 20
851.82862328098508
 30
0.0
 11
112.19389972541364
 21
869.03072328098506
 31
0.0
  0
LINE
  8
001
 62
               3
  5
1A2
 10
112.39409972541364
 20
852.02972328098508
 30
0.0
 11
114.19399972541362
 21
852.02972328098508
 31
0.0
  0
LINE
  8
001
 62
               3
  5
1A3
 10
43.59399972541371
 20
870.10382328098513
 30
0.0
 11
24.59399972541371
 21
865.35152328098513
 31
0.0
  0
LINE
  8
001
 62
               3
  5
1A4
 10
43.59399972541371
 20
850.75552328098513
 30
0.0
 11
24.59399972541371
 21
855.50762328098517
 31
0.0
  0
LINE
  8
001
 62
               3
  5
1A5
 10
110.39399972541366
 20
1053.9299232809851
 30
0.0
 11
110.39399972541366
 21
1066.9298232809851
 31
0.0
  0
LINE
  8
001
 62
               3
  5
1A6
 10
105.16069972541368
 20
834.17962328098508
 30
0.0
 11
105.16069972541368
 21
886.67962328098508
 31
0.0
  0
LINE
  8
001
 62
               3
  5
1A7
 10
79.675899725413615
 20
834.17932328098516
 30
0.0
 11
66.220499725413674
 21
834.1796232809852
 31
0.0
  0
LINE
  8
001
 62
               3
  5
1A8
 10
79.675899725413615
 20
886.67932328098516
 30
0.0
 11
66.220499725413674
 21
886.6796232809852
 31
0.0
  0
LINE
  8
001
 62
               3
  5
1A9
 10
79.675899725413615
 20
834.99992328098517
 30
0.0
 11
94.615299725413706
 21
834.99992328098517
 31
0.0
  0
LINE
  8
001
 62
               3
  5
1AA
 10
79.675899725413615
 20
885.85922328098513
 30
0.0
 11
94.615299725413706
 21
885.85922328098513
 31
0.0
  0
LINE
  8
001
 62
               3
  5
1AB
 10
177.19399972541362
 20
823.42992328098512
 30
0.0
 11
177.19399972541362
 21
897.42992328098512
 31
0.0
  0
LINE
  8
001
 62
               3
  5
1AC
 10
111.59399972541371
 20
845.24032328098508
 30
0.0
 11
107.79709972541366
 21
839.10152328098502
 31
0.0
  0
LINE
  8
001
 62
               3
  5
1AD
 10
107.79709972541366
 20
881.75762328098517
 30
0.0
 11
111.59399972541371
 21
875.6189232809852
 31
0.0
  0
LINE
  8
001
 62
               3
  5
1AE
 10
106.9182997254137
 20
839.10162328098511
 30
0.0
 11
107.79709972541366
 21
839.10152328098513
 31
0.0
  0
LINE
  8
001
 62
               3
  5
1AF
 10
24.59399972541371
 20
865.35152328098513
 30
0.0
 11
24.59399972541371
 21
855.50762328098517
 31
0.0
  0
LINE
  8
001
 62
               3
  5
1B0
 10
106.9182997254137
 20
881.75762328098517
 30
0.0
 11
107.79709972541366
 21
881.75762328098517
 31
0.0
  0
LINE
  8
001
 62
               3
  5
1B1
 10
64.139499725413657
 20
841.42962328098508
 30
0.0
 11
66.220499725413674
 21
834.17962328098508
 31
0.0
  0
LINE
  8
001
 62
               3
  5
1B2
 10
106.9182997254137
 20
835.82012328098517
 30
0.0
 11
105.16069972541368
 21
834.1796232809852
 31
0.0
  0
LINE
  8
001
 62
               3
  5
1B3
 10
106.9182997254137
 20
885.03902328098513
 30
0.0
 11
105.16069972541368
 21
886.6796232809852
 31
0.0
  0
LINE
  8
001
 62
               3
  5
1B4
 10
106.9182997254137
 20
835.82012328098517
 30
0.0
 11
106.9182997254137
 21
885.03902328098513
 31
0.0
  0
LINE
  8
001
 62
               3
  5
1B5
 10
94.615299725413706
 20
834.17932328098516
 30
0.0
 11
94.615299725413706
 21
886.67932328098516
 31
0.0
  0
LINE
  8
001
 62
               3
  5
1B6
 10
79.675899725413615
 20
834.17932328098516
 30
0.0
 11
79.675899725413615
 21
886.67932328098516
 31
0.0
  0
LINE
  8
001
 62
               3
  5
1B7
 10
66.220499725413674
 20
834.17962328098508
 30
0.0
 11
66.220499725413674
 21
886.67962328098508
 31
0.0
  0
LINE
  8
001
 62
               3
  5
1B8
 10
64.139499725413657
 20
879.42962328098508
 30
0.0
 11
66.220499725413674
 21
886.67962328098508
 31
0.0
  0
LINE
  8
001
 62
               3
  5
1B9
 10
111.59399972541371
 20
875.61892328098509
 30
0.0
 11
111.59399972541371
 21
845.24032328098508
 31
0.0
  0
LINE
  8
001
 62
               3
  5
1BA
 10
48.866699725413696
 20
841.42962328098508
 30
0.0
 11
48.866699725413696
 21
879.42962328098508
 31
0.0
  0
LINE
  8
001
 62
               3
  5
1BB
 10
43.59399972541371
 20
846.35152328098513
 30
0.0
 11
48.866699725413696
 21
841.4296232809852
 31
0.0
  0
LINE
  8
001
 62
               3
  5
1BC
 10
48.866699725413696
 20
879.42962328098508
 30
0.0
 11
43.59399972541371
 21
874.50762328098517
 31
0.0
  0
LINE
  8
001
 62
               3
  5
1BD
 10
64.139499725413657
 20
879.42962328098508
 30
0.0
 11
64.139499725413657
 21
841.42962328098508
 31
0.0
  0
LINE
  8
001
 62
               3
  5
1BE
 10
105.16069972541368
 20
834.17962328098508
 30
0.0
 11
94.615299725413706
 21
834.17932328098505
 31
0.0
  0
LINE
  8
001
 62
               3
  5
1BF
 10
105.16069972541368
 20
886.67962328098508
 30
0.0
 11
94.615299725413706
 21
886.67932328098505
 31
0.0
  0
LINE
  8
001
 62
               3
  5
1C0
 10
142.19399972541362
 20
895.92982328098515
 30
0.0
 11
147.79274617517683
 21
897.42992328098512
 31
0.0
  0
LINE
  8
001
 62
               3
  5
1C1
 10
160.19399972541362
 20
897.42982328098515
 30
0.0
 11
160.19399972541362
 21
823.42982328098515
 31
0.0
  0
LINE
  8
001
 62
               3
  5
1C2
 10
150.69399972541362
 20
897.42982328098515
 30
0.0
 11
150.69399972541362
 21
823.4300232809851
 31
0.0
  0
LINE
  8
001
 62
               3
  5
1C3
 10
147.79199972541369
 20
897.42972328098517
 30
0.0
 11
147.79199972541369
 21
823.42982328098515
 31
0.0
  0
LINE
  8
001
 62
               3
  5
1C4
 10
142.19399972541362
 20
895.92982328098515
 30
0.0
 11
142.19399972541362
 21
824.92982328098515
 31
0.0
  0
LINE
  8
001
 62
               3
  5
1C5
 10
142.19399972541362
 20
824.92982328098515
 30
0.0
 11
147.79162652541379
 21
823.42992328098512
 31
0.0
  0
LINE
  8
001
 62
               3
  5
1C6
 10
396.19399972541362
 20
897.42992328098512
 30
0.0
 11
396.19399972541362
 21
823.42972328098517
 31
0.0
  0
LINE
  8
001
  6
DASHED
 62
               3
  5
1C7
 10
86.193999725413619
 20
868.35742328098513
 30
0.0
 11
86.193999725413619
 21
852.50192328098512
 31
0.0
  0
LINE
  8
001
 62
               3
  5
1C8
 10
64.139499725413657
 20
841.42962328098508
 30
0.0
 11
48.866699725413696
 21
841.42962328098508
 31
0.0
  0
LINE
  8
001
 62
               3
  5
1C9
 10
64.139499725413657
 20
879.42962328098508
 30
0.0
 11
48.866699725413696
 21
879.42962328098508
 31
0.0
  0
LINE
  8
001
 62
               3
  5
1CA
 10
43.59399972541371
 20
874.50762328098517
 30
0.0
 11
43.59399972541371
 21
846.35152328098513
 31
0.0
  0
LINE
  8
001
  6
DASHED
 62
               3
  5
1CB
 10
112.19399972541362
 20
851.82862328098508
 30
0.0
 11
86.193999725413619
 21
852.50192328098501
 31
0.0
  0
LINE
  8
001
  6
DASHED
 62
               3
  5
1CC
 10
112.19389972541364
 20
869.03072328098517
 30
0.0
 11
86.193999725413619
 21
868.35742328098513
 31
0.0
  0
LINE
  8
001
 62
               3
  5
1CD
 10
115.19399972541362
 20
1234.6390224470667
 30
0.0
 11
115.19399972541362
 21
1186.6391224470667
 31
0.0
  0
LINE
  8
001
 62
               3
  5
1CE
 10
115.19399972541362
 20
1234.6390224470667
 30
0.0
 11
116.92651932541358
 21
1235.6393224470667
 31
0.0
  0
LINE
  8
001
 62
               3
  5
1CF
 10
115.19399972541362
 20
1186.6391224470667
 30
0.0
 11
116.92565332541378
 21
1185.6393224470667
 31
0.0
  0
LINE
  8
001
 62
               3
  5
1D0
 10
116.9259997254137
 20
1185.6391224470667
 30
0.0
 11
116.9259997254137
 21
1235.6390224470667
 31
0.0
  0
LINE
  8
001
 62
               3
  5
1D1
 10
112.39409972541364
 20
1219.0390224470668
 30
0.0
 11
114.19399972541362
 21
1219.0390224470668
 31
0.0
  0
LINE
  8
001
 62
               3
  5
1D2
 10
112.19399972541362
 20
1202.0379224470666
 30
0.0
 11
112.19389972541364
 21
1219.2400224470668
 31
0.0
  0
LINE
  8
001
 62
               3
  5
1D3
 10
112.39409972541364
 20
1202.2390224470666
 30
0.0
 11
114.19399972541362
 21
1202.2390224470666
 31
0.0
  0
LINE
  8
001
 62
               3
  5
1D4
 10
43.59399972541371
 20
1220.3132224470667
 30
0.0
 11
24.59399972541371
 21
1215.5608224470668
 31
0.0
  0
LINE
  8
001
 62
               3
  5
1D5
 10
43.59399972541371
 20
1200.9648224470668
 30
0.0
 11
24.59399972541371
 21
1205.7170224470667
 31
0.0
  0
LINE
  8
001
 62
               3
  5
1D6
 10
105.16069972541368
 20
1184.3889224470668
 30
0.0
 11
105.16069972541368
 21
1236.8889224470668
 31
0.0
  0
LINE
  8
001
 62
               3
  5
1D7
 10
79.675899725413615
 20
1184.3886224470668
 30
0.0
 11
66.220499725413674
 21
1184.3889224470668
 31
0.0
  0
LINE
  8
001
 62
               3
  5
1D8
 10
79.675899725413615
 20
1236.8886224470668
 30
0.0
 11
66.220499725413674
 21
1236.8889224470668
 31
0.0
  0
LINE
  8
001
 62
               3
  5
1D9
 10
79.675899725413615
 20
1185.2092224470668
 30
0.0
 11
94.615299725413706
 21
1185.2092224470668
 31
0.0
  0
LINE
  8
001
 62
               3
  5
1DA
 10
79.675899725413615
 20
1236.0686224470667
 30
0.0
 11
94.615299725413706
 21
1236.0686224470667
 31
0.0
  0
LINE
  8
001
 62
               3
  5
1DB
 10
177.19399972541362
 20
1173.6393224470667
 30
0.0
 11
177.19399972541362
 21
1247.6393224470667
 31
0.0
  0
LINE
  8
001
 62
               3
  5
1DC
 10
111.59399972541371
 20
1195.4497224470667
 30
0.0
 11
107.79709972541366
 21
1189.3108224470668
 31
0.0
  0
LINE
  8
001
 62
               3
  5
1DD
 10
107.79709972541366
 20
1231.9670224470667
 30
0.0
 11
111.59399972541371
 21
1225.8282224470668
 31
0.0
  0
LINE
  8
001
 62
               3
  5
1DE
 10
106.9182997254137
 20
1189.3110224470668
 30
0.0
 11
107.79709972541366
 21
1189.3108224470668
 31
0.0
  0
LINE
  8
001
 62
               3
  5
1DF
 10
24.59399972541371
 20
1215.5608224470668
 30
0.0
 11
24.59399972541371
 21
1205.7170224470667
 31
0.0
  0
LINE
  8
001
 62
               3
  5
1E0
 10
106.9182997254137
 20
1231.9669224470667
 30
0.0
 11
107.79709972541366
 21
1231.9670224470667
 31
0.0
  0
LINE
  8
001
 62
               3
  5
1E1
 10
64.139499725413657
 20
1191.6389224470668
 30
0.0
 11
66.220499725413674
 21
1184.3889224470668
 31
0.0
  0
LINE
  8
001
 62
               3
  5
1E2
 10
106.9182997254137
 20
1186.0295224470667
 30
0.0
 11
105.16069972541368
 21
1184.3889224470668
 31
0.0
  0
LINE
  8
001
 62
               3
  5
1E3
 10
106.9182997254137
 20
1235.2483224470668
 30
0.0
 11
105.16069972541368
 21
1236.8889224470668
 31
0.0
  0
LINE
  8
001
 62
               3
  5
1E4
 10
106.9182997254137
 20
1186.0295224470667
 30
0.0
 11
106.9182997254137
 21
1235.2483224470668
 31
0.0
  0
LINE
  8
001
 62
               3
  5
1E5
 10
94.615299725413706
 20
1184.3886224470668
 30
0.0
 11
94.615299725413706
 21
1236.8886224470668
 31
0.0
  0
LINE
  8
001
 62
               3
  5
1E6
 10
79.675899725413615
 20
1184.3886224470668
 30
0.0
 11
79.675899725413615
 21
1236.8886224470668
 31
0.0
  0
LINE
  8
001
 62
               3
  5
1E7
 10
66.220499725413674
 20
1184.3889224470668
 30
0.0
 11
66.220499725413674
 21
1236.8889224470668
 31
0.0
  0
LINE
  8
001
 62
               3
  5
1E8
 10
64.139499725413657
 20
1229.6389224470668
 30
0.0
 11
66.220499725413674
 21
1236.8889224470668
 31
0.0
  0
LINE
  8
001
 62
               3
  5
1E9
 10
111.59399972541371
 20
1225.8282224470668
 30
0.0
 11
111.59399972541371
 21
1195.4497224470667
 31
0.0
  0
LINE
  8
001
 62
               3
  5
1EA
 10
48.866699725413696
 20
1191.6389224470668
 30
0.0
 11
48.866699725413696
 21
1229.6389224470668
 31
0.0
  0
LINE
  8
001
 62
               3
  5
1EB
 10
43.59399972541371
 20
1196.5608224470668
 30
0.0
 11
48.866699725413696
 21
1191.6389224470668
 31
0.0
  0
LINE
  8
001
 62
               3
  5
1EC
 10
48.866699725413696
 20
1229.6389224470668
 30
0.0
 11
43.59399972541371
 21
1224.7170224470667
 31
0.0
  0
LINE
  8
001
 62
               3
  5
1ED
 10
64.139499725413657
 20
1229.6389224470668
 30
0.0
 11
64.139499725413657
 21
1191.6389224470668
 31
0.0
  0
LINE
  8
001
 62
               3
  5
1EE
 10
105.16069972541368
 20
1184.3889224470668
 30
0.0
 11
94.615299725413706
 21
1184.3886224470668
 31
0.0
  0
LINE
  8
001
 62
               3
  5
1EF
 10
105.16069972541368
 20
1236.8889224470668
 30
0.0
 11
94.615299725413706
 21
1236.8886224470668
 31
0.0
  0
LINE
  8
001
 62
               3
  5
1F0
 10
142.19399972541362
 20
1246.1391224470667
 30
0.0
 11
147.79311940005837
 21
1247.6393224470667
 31
0.0
  0
LINE
  8
001
 62
               3
  5
1F1
 10
142.19399972541362
 20
1235.6390224470667
 30
0.0
 11
141.19399972541362
 21
1235.6391224470667
 31
0.0
  0
LINE
  8
001
 62
               3
  5
1F2
 10
160.19399972541362
 20
1247.6391224470667
 30
0.0
 11
160.19399972541362
 21
1173.6391224470667
 31
0.0
  0
LINE
  8
001
 62
               3
  5
1F3
 10
150.69399972541362
 20
1247.6391224470667
 30
0.0
 11
150.69399972541362
 21
1173.6394224470666
 31
0.0
  0
LINE
  8
001
 62
               3
  5
1F4
 10
147.79199972541369
 20
1247.6390224470667
 30
0.0
 11
147.79199972541369
 21
1173.6391224470667
 31
0.0
  0
LINE
  8
001
 62
               3
  5
1F5
 10
142.19399972541362
 20
1246.1391224470667
 30
0.0
 11
142.19399972541362
 21
1175.1391224470667
 31
0.0
  0
LINE
  8
001
 62
               3
  5
1F6
 10
142.19399972541362
 20
1185.6391224470667
 30
0.0
 11
141.19399972541362
 21
1185.6391224470667
 31
0.0
  0
LINE
  8
001
 62
               3
  5
1F7
 10
142.19399972541362
 20
1175.1391224470667
 30
0.0
 11
147.79125332541386
 21
1173.6393224470667
 31
0.0
  0
LINE
  8
001
 62
               3
  5
1F8
 10
106.73379972541363
 20
944.42992328098512
 30
0.0
 11
100.73379972541363
 21
944.42982328098515
 31
0.0
  0
LINE
  8
001
  6
DASHED
 62
               3
  5
1F9
 10
86.193999725413619
 20
1218.5667224470667
 30
0.0
 11
86.193999725413619
 21
1202.7113224470668
 31
0.0
  0
LINE
  8
001
  6
CENTER
  5
1FA
 10
15.193999725413619
 20
1210.6393224470667
 30
0.0
 11
728.19389972541364
 21
1210.6393224470667
 31
0.0
  0
LINE
  8
001
 62
               3
  5
1FB
 10
64.139499725413657
 20
1191.6389224470668
 30
0.0
 11
48.866699725413696
 21
1191.6389224470668
 31
0.0
  0
LINE
  8
001
 62
               3
  5
1FC
 10
64.139499725413657
 20
1229.6389224470668
 30
0.0
 11
48.866699725413696
 21
1229.6389224470668
 31
0.0
  0
LINE
  8
001
 62
               3
  5
1FD
 10
43.59399972541371
 20
1224.7170224470667
 30
0.0
 11
43.59399972541371
 21
1196.5608224470668
 31
0.0
  0
LINE
  8
001
  6
DASHED
 62
               3
  5
1FE
 10
112.19399972541362
 20
1202.0379224470666
 30
0.0
 11
86.193999725413619
 21
1202.7113224470668
 31
0.0
  0
LINE
  8
001
  6
DASHED
 62
               3
  5
1FF
 10
112.19389972541364
 20
1219.2400224470668
 30
0.0
 11
86.193999725413619
 21
1218.5667224470667
 31
0.0
  0
LINE
  8
001
  5
200
 10
399.19399972541362
 20
813.42992328098512
 30
0.0
 11
399.19399972541362
 21
871.42992328098512
 31
0.0
  0
LINE
  8
001
 62
               3
  5
201
 10
83.394099725413639
 20
971.42992328098512
 30
0.0
 11
83.394099725413639
 21
949.42992328098512
 31
0.0
  0
LINE
  8
001
 62
               3
  5
202
 10
73.394099725413639
 20
971.42992328098512
 30
0.0
 11
70.394099725413639
 21
968.42992328098512
 31
0.0
  0
LINE
  8
001
 62
               3
  5
203
 10
70.394099725413639
 20
952.42992328098512
 30
0.0
 11
73.394099725413639
 21
949.42992328098512
 31
0.0
  0
LINE
  8
001
 62
               3
  5
204
 10
73.394099725413639
 20
949.42992328098512
 30
0.0
 11
73.394099725413639
 21
971.42992328098512
 31
0.0
  0
LINE
  8
001
 62
               3
  5
205
 10
110.39409972541364
 20
969.68812328098511
 30
0.0
 11
110.39409972541364
 21
951.17172328098513
 31
0.0
  0
LINE
  8
001
  5
206
 10
426.19389972541364
 20
805.42992328098512
 30
0.0
 11
407.19399972541362
 21
805.42992328098512
 31
0.0
  0
LINE
  8
001
 62
               3
  5
207
 10
92.233799725413633
 20
975.92992328098512
 30
0.0
 11
100.73379972541363
 21
975.92992328098512
 31
0.0
  0
LINE
  8
001
 62
               3
  5
208
 10
92.233799725413633
 20
944.92992328098512
 30
0.0
 11
100.73379972541363
 21
944.92992328098512
 31
0.0
  0
LINE
  8
001
 62
               3
  5
209
 10
92.233799725413633
 20
976.42982328098515
 30
0.0
 11
84.733799725413633
 21
976.42992328098512
 31
0.0
  0
LINE
  8
001
 62
               3
  5
20A
 10
92.233799725413633
 20
944.42982328098515
 30
0.0
 11
84.733799725413633
 21
944.42992328098512
 31
0.0
  0
LINE
  8
001
 62
               3
  5
20B
 10
106.73379972541363
 20
944.42992328098512
 30
0.0
 11
106.73379972541363
 21
976.42992328098512
 31
0.0
  0
LINE
  8
001
 62
               3
  5
20C
 10
106.73379972541363
 20
976.42992328098512
 30
0.0
 11
100.73379972541363
 21
976.42982328098515
 31
0.0
  0
LINE
  8
001
 62
               3
  5
20D
 10
83.394099725413639
 20
949.42992328098512
 30
0.0
 11
73.394099725413639
 21
949.42992328098512
 31
0.0
  0
LINE
  8
001
 62
               3
  5
20E
 10
83.394099725413639
 20
971.42992328098512
 30
0.0
 11
73.394099725413639
 21
971.42992328098512
 31
0.0
  0
LINE
  8
001
 62
               3
  5
20F
 10
70.394099725413639
 20
968.42992328098512
 30
0.0
 11
70.394099725413639
 21
952.42992328098512
 31
0.0
  0
LINE
  8
001
 62
               3
  5
210
 10
70.394099725413639
 20
954.88442328098506
 30
0.0
 11
60.894099725413639
 21
957.42992328098512
 31
0.0
  0
LINE
  8
001
 62
               3
  5
211
 10
70.394099725413639
 20
965.97552328098516
 30
0.0
 11
60.894099725413639
 21
963.42992328098512
 31
0.0
  0
LINE
  8
001
 62
               4
  5
212
 10
811.47900481605211
 20
821.42992328098512
 30
0.0
 11
820.23210481605224
 21
821.42992328098512
 31
0.0
  0
LINE
  8
001
 62
               3
  5
213
 10
84.733799725413633
 20
976.42992328098512
 30
0.0
 11
83.394099725413639
 21
971.42992328098512
 31
0.0
  0
LINE
  8
001
 62
               3
  5
214
 10
84.733799725413633
 20
944.42992328098512
 30
0.0
 11
84.733799725413633
 21
976.42992328098512
 31
0.0
  0
LINE
  8
001
 62
               4
  5
215
 10
811.47900481605211
 20
823.42992328098512
 30
0.0
 11
818.94650481605208
 21
823.42992328098512
 31
0.0
  0
LINE
  8
001
 62
               3
  5
216
 10
92.233799725413633
 20
944.42982328098515
 30
0.0
 11
92.233799725413633
 21
976.42982328098515
 31
0.0
  0
LINE
  8
001
  5
217
 10
809.47900481605211
 20
822.89402328098515
 30
0.0
 11
809.47900481605211
 21
825.54320193503702
 31
0.0
  0
LINE
  8
001
 62
               3
  5
218
 10
100.73379972541363
 20
944.42982328098515
 30
0.0
 11
100.73379972541363
 21
976.42982328098515
 31
0.0
  0
LINE
  8
001
 62
               3
  5
219
 10
107.73379972541363
 20
945.42992328098512
 30
0.0
 11
107.73379972541363
 21
975.42992328098512
 31
0.0
  0
LINE
  8
001
 62
               3
  5
21A
 10
107.73379972541363
 20
975.42992328098512
 30
0.0
 11
106.73379972541363
 21
976.42992328098512
 31
0.0
  0
LINE
  8
001
 62
               3
  5
21B
 10
107.73379972541363
 20
945.42992328098512
 30
0.0
 11
106.73379972541363
 21
944.42992328098512
 31
0.0
  0
LINE
  8
001
 62
               3
  5
21C
 10
83.394099725413639
 20
949.42992328098512
 30
0.0
 11
84.733799725413633
 21
944.42992328098512
 31
0.0
  0
LINE
  8
001
 62
               3
  5
21D
 10
107.73379972541363
 20
973.42982328098515
 30
0.0
 11
108.23379972541363
 21
973.42992328098512
 31
0.0
  0
LINE
  8
001
 62
               3
  5
21E
 10
60.894099725413639
 20
963.42992328098512
 30
0.0
 11
60.894099725413639
 21
957.42992328098512
 31
0.0
  0
LINE
  8
001
 62
               3
  5
21F
 10
568.15839972541369
 20
1175.6393224470667
 30
0.0
 11
564.19389972541364
 21
1179.6039224470667
 31
0.0
  0
LINE
  8
001
 62
               3
  5
220
 10
645.22949972541358
 20
1175.6393224470667
 30
0.0
 11
649.19389972541364
 21
1179.6036224470668
 31
0.0
  0
LINE
  8
001
 62
               3
  5
221
 10
645.22949972541358
 20
1175.6393224470667
 30
0.0
 11
568.15839972541369
 21
1175.6393224470667
 31
0.0
  0
LINE
  8
001
 62
               3
  5
222
 10
568.15839972541369
 20
1245.6393224470667
 30
0.0
 11
564.19389972541364
 21
1241.6747224470666
 31
0.0
  0
LINE
  8
001
 62
               3
  5
223
 10
645.22949972541358
 20
1245.6393224470667
 30
0.0
 11
649.19389972541364
 21
1241.6749224470668
 31
0.0
  0
LINE
  8
001
 62
               3
  5
224
 10
107.73379972541363
 20
947.4300232809851
 30
0.0
 11
108.23379972541363
 21
947.42992328098512
 31
0.0
  0
LINE
  8
001
 62
               3
  5
225
 10
564.19389972541364
 20
1241.6747224470666
 30
0.0
 11
564.19389972541364
 21
1179.6039224470667
 31
0.0
  0
LINE
  8
001
 62
               3
  5
226
 10
645.22949972541358
 20
1245.6393224470667
 30
0.0
 11
568.15839972541369
 21
1245.6393224470667
 31
0.0
  0
LINE
  8
001
 62
               3
  5
227
 10
649.19389972541364
 20
1241.6749224470668
 30
0.0
 11
649.19389972541364
 21
1179.6036224470668
 31
0.0
  0
LINE
  8
001
 62
               3
  5
228
 10
666.19389972541364
 20
1264.6393224470667
 30
0.0
 11
666.19389972541364
 21
1156.6393224470667
 31
0.0
  0
LINE
  8
001
 62
               3
  5
229
 10
722.83229972541369
 20
830.19482328098513
 30
0.0
 11
713.64189972541374
 21
817.06952328098509
 31
0.0
  0
LINE
  8
001
 62
               3
  5
22A
 10
699.19389972541364
 20
816.42992328098512
 30
0.0
 11
699.19389972541364
 21
1056.4299232809851
 31
0.0
  0
LINE
  8
001
 62
               3
  5
22B
 10
660.63729972541353
 20
820.92992328098512
 30
0.0
 11
662.65809972541376
 21
817.42992328098512
 31
0.0
  0
LINE
  8
001
 62
               3
  5
22C
 10
713.19389972541364
 20
1056.0791232809852
 30
0.0
 11
713.19389972541364
 21
1042.4299232809851
 31
0.0
  0
LINE
  8
001
 62
               3
  5
22D
 10
666.19389972541364
 20
1054.4299232809851
 30
0.0
 11
666.19389972541364
 21
946.16202328098507
 31
0.0
  0
LINE
  8
001
 62
               3
  5
22E
 10
645.88399972541367
 20
899.42992328098512
 30
0.0
 11
649.19389972541364
 21
899.42992328098512
 31
0.0
  0
LINE
  8
001
 62
               3
  5
22F
 10
895.53850481605218
 20
1052.4299232809851
 30
0.0
 11
915.4075048160521
 21
1018.0160232809851
 31
0.0
  0
LINE
  8
001
 62
               3
  5
230
 10
916.47950481605221
 20
947.0627232809851
 30
0.0
 11
916.47950481605221
 21
1014.0160232809851
 31
0.0
  0
LINE
  8
001
 62
               3
  5
231
 10
816.99650481605227
 20
916.75562328098511
 30
0.0
 11
806.96160481605216
 21
944.32662328098513
 31
0.0
  0
LINE
  8
001
 62
               3
  5
232
 10
905.47950481605221
 20
829.42992328098512
 30
0.0
 11
905.47950481605221
 21
914.01942328098517
 31
0.0
  0
LINE
  8
001
 62
               3
  5
233
 10
806.47920481605229
 20
947.06282328098507
 30
0.0
 11
806.47900481605211
 21
1014.0161232809851
 31
0.0
  0
LINE
  8
001
 62
               3
  5
234
 10
827.41980481605219
 20
1052.4299232809851
 30
0.0
 11
807.55090481605225
 21
1018.0161232809851
 31
0.0
  0
LINE
  8
001
 62
               3
  5
235
 10
108.23379972541363
 20
973.42992328098512
 30
0.0
 11
110.39409972541364
 21
969.68812328098511
 31
0.0
  0
LINE
  8
001
 62
               3
  5
236
 10
888.6104048160521
 20
1056.4299232809849
 30
0.0
 11
834.34790481605228
 21
1056.4299232809849
 31
0.0
  0
LINE
  8
001
 62
               3
  5
237
 10
905.96150481605218
 20
916.75552328098513
 30
0.0
 11
915.99650481605227
 21
944.32652328098516
 31
0.0
  0
LINE
  8
001
 62
               3
  5
238
 10
110.39409972541364
 20
951.17172328098513
 30
0.0
 11
108.23379972541363
 21
947.42992328098512
 31
0.0
  0
LINE
  8
001
 62
               3
  5
239
 10
718.19389972541364
 20
1048.1086232809853
 30
0.0
 11
722.90829972541371
 21
1040.2626232809853
 31
0.0
  0
LINE
  8
001
 62
               3
  5
23A
 10
655.67639972541372
 20
943.34372328098516
 30
0.0
 11
666.19389972541364
 21
946.16202328098507
 31
0.0
  0
LINE
  8
001
 62
               3
  5
23B
 10
661.69959972541358
 20
1265.6393224470667
 30
0.0
 11
713.19389972541364
 21
1265.6393224470667
 31
0.0
  0
LINE
  8
001
 62
               3
  5
23C
 10
668.19389972541364
 20
1056.4299232809849
 30
0.0
 11
712.34539972541381
 21
1056.4299232809849
 31
0.0
  0
LINE
  8
001
 62
               3
  5
23D
 10
699.19389972541364
 20
1265.6393224470667
 30
0.0
 11
699.19389972541364
 21
1155.6393224470667
 31
0.0
  0
LINE
  8
001
 62
               3
  5
23E
 10
666.19389972541364
 20
1263.6393224470667
 30
0.0
 11
666.19389972541364
 21
1157.6393224470667
 31
0.0
  0
LINE
  8
001
 62
               3
  5
23F
 10
638.47299972541362
 20
897.42992328098512
 30
0.0
 11
620.19389972541364
 21
897.42992328098512
 31
0.0
  0
LINE
  8
001
 62
               3
  5
240
 10
564.19389972541364
 20
1080.4299232809849
 30
0.0
 11
564.19389972541364
 21
1062.4299232809849
 31
0.0
  0
LINE
  8
001
 62
               3
  5
241
 10
565.77729972541385
 20
1061.4300232809851
 30
0.0
 11
565.19389972541364
 21
1061.4299232809849
 31
0.0
  0
LINE
  8
001
 62
               3
  5
242
 10
826.47920481605229
 20
1092.9299232809849
 30
0.0
 11
826.47920481605229
 21
1080.4299232809849
 31
0.0
  0
LINE
  8
001
 62
               4
  5
243
 10
620.19389972541364
 20
926.42992328098512
 30
0.0
 11
399.19399972541362
 21
926.42992328098512
 31
0.0
  0
LINE
  8
001
 62
               3
  5
244
 10
828.97920481605229
 20
1095.4299232809849
 30
0.0
 11
826.47920481605229
 21
1092.9299232809849
 31
0.0
  0
LINE
  8
001
 62
               3
  5
245
 10
829.85810481605199
 20
1055.0510232809852
 30
0.0
 11
828.47920481605229
 21
1056.4299232809851
 31
0.0
  0
LINE
  8
001
 62
               3
  5
246
 10
664.39009972541373
 20
816.42992328098512
 30
0.0
 11
712.41319972541362
 21
816.42992328098512
 31
0.0
  0
LINE
  8
001
 62
               4
  5
247
 10
399.19399972541362
 20
926.42992328098512
 30
0.0
 11
399.19399972541362
 21
771.42992328098512
 31
0.0
  0
LINE
  8
001
 62
               3
  5
248
 10
718.19389972541364
 20
1051.161323280985
 30
0.0
 11
717.89399972541366
 21
1051.6810232809851
 31
0.0
  0
LINE
  8
001
 62
               3
  5
249
 10
717.89399972541366
 20
1051.6810232809851
 30
0.0
 11
713.19409972541382
 21
1051.6809232809851
 31
0.0
  0
LINE
  8
001
 62
               3
  5
24A
 10
828.47920481605229
 20
1056.4299232809849
 30
0.0
 11
826.47920481605229
 21
1080.4299232809849
 31
0.0
  0
LINE
  8
001
 62
               3
  5
24B
 10
620.19389972541364
 20
897.42992328098512
 30
0.0
 11
620.19389972541364
 21
823.42992328098512
 31
0.0
  0
LINE
  8
001
 62
               3
  5
24C
 10
894.47950481605221
 20
1056.4299232809849
 30
0.0
 11
896.47950481605221
 21
1080.4299232809849
 31
0.0
  0
LINE
  8
001
 62
               3
  5
24D
 10
893.10050481605208
 20
1055.0511232809849
 30
0.0
 11
894.47950481605221
 21
1056.4299232809849
 31
0.0
  0
LINE
  8
001
 62
               3
  5
24E
 10
717.89399972541366
 20
1043.1810232809851
 30
0.0
 11
718.19389972541364
 21
1043.7006232809852
 31
0.0
  0
LINE
  8
001
 62
               3
  5
24F
 10
718.19389972541364
 20
1043.7006232809852
 30
0.0
 11
718.19389972541364
 21
1051.161323280985
 31
0.0
  0
LINE
  8
001
 62
               3
  5
250
 10
717.89399972541366
 20
1051.6810232809851
 30
0.0
 11
717.89399972541366
 21
1043.1810232809851
 31
0.0
  0
LINE
  8
001
 62
               3
  5
251
 10
717.89399972541366
 20
1043.1810232809851
 30
0.0
 11
713.19409972541382
 21
1043.1810232809851
 31
0.0
  0
LINE
  8
001
  6
CENTER
  5
252
 10
861.478810915841
 20
766.6757401438656
 30
0.0
 11
861.47920481605229
 21
1105.4298232809851
 31
0.0
  0
LINE
  8
001
 62
               3
  5
253
 10
717.89389972541369
 20
819.18022328098516
 30
0.0
 11
715.10753497929716
 21
819.18022328098516
 31
0.0
  0
LINE
  8
001
 62
               3
  5
254
 10
717.89389972541369
 20
823.14202328098509
 30
0.0
 11
717.89389972541369
 21
819.18022328098505
 31
0.0
  0
LINE
  8
001
 62
               3
  5
255
 10
718.19389972541364
 20
819.69982328098513
 30
0.0
 11
718.19389972541364
 21
823.5704232809851
 31
0.0
  0
LINE
  8
001
 62
               3
  5
256
 10
717.89389972541369
 20
819.18022328098516
 30
0.0
 11
718.19389972541364
 21
819.69982328098513
 31
0.0
  0
LINE
  8
001
 62
               3
  5
257
 10
713.19389972541364
 20
1231.6383224470667
 30
0.0
 11
713.19389972541364
 21
1251.0498224470668
 31
0.0
  0
LINE
  8
001
 62
               3
  5
258
 10
723.19389972541364
 20
1039.2325232809851
 30
0.0
 11
723.19389972541364
 21
831.34202328098513
 31
0.0
  0
LINE
  8
001
 62
               3
  5
259
 10
620.19389972541364
 20
823.42992328098512
 30
0.0
 11
620.19389972541364
 21
897.42992328098512
 31
0.0
  0
LINE
  8
001
 62
               3
  5
25A
 10
654.19389972541364
 20
904.42992328098512
 30
0.0
 11
654.19389972541364
 21
941.41192328098509
 31
0.0
  0
LINE
  8
001
 62
               3
  5
25B
 10
714.19389972541364
 20
1041.4299232809851
 30
0.0
 11
722.20699972541354
 21
1041.4299232809851
 31
0.0
  0
LINE
  8
001
 62
               3
  5
25C
 10
713.19389972541364
 20
1170.2287224470667
 30
0.0
 11
713.19389972541364
 21
1189.6402224470667
 31
0.0
  0
LINE
  8
001
 62
               3
  5
25D
 10
723.19389972541364
 20
1164.6433224470668
 30
0.0
 11
713.19389972541364
 21
1155.6393224470667
 31
0.0
  0
LINE
  8
001
 62
               3
  5
25E
 10
717.89399972541366
 20
1233.3893224470667
 30
0.0
 11
713.19409972541382
 21
1233.3893224470667
 31
0.0
  0
LINE
  8
001
 62
               3
  5
25F
 10
717.89399972541366
 20
1241.8893224470667
 30
0.0
 11
717.89399972541366
 21
1233.3893224470667
 31
0.0
  0
LINE
  8
001
 62
               3
  5
260
 10
830.47900481605211
 20
816.42992328098512
 30
0.0
 11
892.47950481605221
 21
816.42992328098512
 31
0.0
  0
LINE
  8
001
 62
               3
  5
261
 10
718.19409972541382
 20
1233.9089224470667
 30
0.0
 11
718.19409972541382
 21
1241.3696224470668
 31
0.0
  0
LINE
  8
001
 62
               3
  5
262
 10
717.89399972541366
 20
1233.3893224470667
 30
0.0
 11
718.19409972541382
 21
1233.9089224470667
 31
0.0
  0
LINE
  8
001
 62
               3
  5
263
 10
717.89399972541366
 20
1241.8893224470667
 30
0.0
 11
713.19409972541382
 21
1241.8893224470667
 31
0.0
  0
LINE
  8
001
 62
               3
  5
264
 10
718.19409972541382
 20
1241.3696224470668
 30
0.0
 11
717.89399972541366
 21
1241.8893224470667
 31
0.0
  0
LINE
  8
001
 62
               3
  5
265
 10
713.19389972541364
 20
1231.6383224470667
 30
0.0
 11
713.19389972541364
 21
1251.0498224470668
 31
0.0
  0
LINE
  8
001
 62
               3
  5
266
 10
716.70709972541374
 20
1231.6383224470667
 30
0.0
 11
713.19389972541364
 21
1231.6383224470667
 31
0.0
  0
LINE
  8
001
 62
               3
  5
267
 10
656.30719972541385
 20
823.42992328098512
 30
0.0
 11
620.19389972541364
 21
823.42992328098512
 31
0.0
  0
LINE
  8
001
  6
CENTER
  5
268
 10
926.47950481605233
 20
1000.4299232809851
 30
0.0
 11
796.47880481605227
 21
1000.4299232809851
 31
0.0
  0
LINE
  8
001
 62
               3
  5
269
 10
723.19389972541364
 20
1256.6352224470668
 30
0.0
 11
723.19389972541364
 21
1164.6433224470668
 31
0.0
  0
LINE
  8
001
 62
               3
  5
26A
 10
716.70699972541354
 20
1189.6402224470667
 30
0.0
 11
713.19389972541364
 21
1189.6402224470667
 31
0.0
  0
LINE
  8
001
 62
               3
  5
26B
 10
713.19389972541364
 20
1189.6402224470667
 30
0.0
 11
713.19389972541364
 21
1170.2287224470667
 31
0.0
  0
LINE
  8
001
 62
               3
  5
26C
 10
661.69939972541363
 20
1155.6393224470667
 30
0.0
 11
713.19389972541364
 21
1155.6393224470667
 31
0.0
  0
LINE
  8
001
 62
               3
  5
26D
 10
718.19389972541364
 20
1179.9088224470668
 30
0.0
 11
717.89399972541366
 21
1179.3893224470667
 31
0.0
  0
LINE
  8
001
 62
               3
  5
26E
 10
717.89399972541366
 20
1179.3893224470667
 30
0.0
 11
713.19389972541364
 21
1179.3893224470667
 31
0.0
  0
LINE
  8
001
 62
               3
  5
26F
 10
717.89399972541366
 20
1187.8893224470667
 30
0.0
 11
718.19389972541364
 21
1187.3696224470668
 31
0.0
  0
LINE
  8
001
 62
               3
  5
270
 10
718.19389972541364
 20
1187.3696224470668
 30
0.0
 11
718.19389972541364
 21
1179.9088224470668
 31
0.0
  0
LINE
  8
001
 62
               3
  5
271
 10
717.89399972541366
 20
1179.3893224470667
 30
0.0
 11
717.89399972541366
 21
1187.8893224470667
 31
0.0
  0
LINE
  8
001
 62
               3
  5
272
 10
717.89399972541366
 20
1187.8893224470667
 30
0.0
 11
713.19409972541382
 21
1187.8893224470667
 31
0.0
  0
LINE
  8
001
 62
               3
  5
273
 10
713.19389972541364
 20
1170.2287224470667
 30
0.0
 11
721.11609972541385
 21
1180.8526224470668
 31
0.0
  0
LINE
  8
001
 62
               3
  5
274
 10
713.19389972541364
 20
1265.6393224470667
 30
0.0
 11
723.19389972541364
 21
1256.6352224470668
 31
0.0
  0
LINE
  8
001
 62
               3
  5
275
 10
713.63119972541369
 20
1055.7024232809849
 30
0.0
 11
716.04749972541379
 21
1051.6810232809848
 31
0.0
  0
LINE
  8
001
  5
276
 10
474.19389972541364
 20
879.42992328098512
 30
0.0
 11
407.19399972541362
 21
879.42992328098512
 31
0.0
  0
LINE
  8
001
  5
277
 10
427.19389972541364
 20
806.42992328098512
 30
0.0
 11
427.19389972541364
 21
821.42992328098512
 31
0.0
  0
LINE
  8
001
  5
278
 10
481.19389972541364
 20
823.42992328098512
 30
0.0
 11
429.19389972541364
 21
823.42992328098512
 31
0.0
  0
LINE
  8
001
  5
279
 10
495.19389972541364
 20
835.92992328098512
 30
0.0
 11
485.73569972541384
 21
835.92992328098512
 31
0.0
  0
LINE
  8
001
  5
27A
 10
457.19389972541364
 20
879.42992328098512
 30
0.0
 11
457.19389972541364
 21
882.92992328098512
 31
0.0
  0
LINE
  8
001
 62
               3
  5
27B
 10
893.97950481605221
 20
1095.4299232809849
 30
0.0
 11
896.47950481605221
 21
1092.9299232809849
 31
0.0
  0
LINE
  8
001
  5
27C
 10
467.69389972541364
 20
883.42992328098512
 30
0.0
 11
460.69389972541364
 21
883.42992328098512
 31
0.0
  0
LINE
  8
001
  5
27D
 10
461.19389972541364
 20
884.92992328098512
 30
0.0
 11
461.19389972541364
 21
883.42992328098512
 31
0.0
  0
LINE
  8
001
  5
27E
 10
467.19389972541364
 20
884.92992328098512
 30
0.0
 11
467.19389972541364
 21
883.42992328098512
 31
0.0
  0
LINE
  8
001
  5
27F
 10
457.84399972541371
 20
888.5799232809851
 30
0.0
 11
470.54389972541378
 21
888.5799232809851
 31
0.0
  0
LINE
  8
001
  5
280
 10
458.69389972541364
 20
889.42992328098512
 30
0.0
 11
457.84399972541371
 21
888.57992328098521
 31
0.0
  0
LINE
  8
001
  5
281
 10
470.54389972541378
 20
888.5799232809851
 30
0.0
 11
469.69389972541364
 21
889.42992328098512
 31
0.0
  0
LINE
  8
001
  5
282
 10
470.54389972541378
 20
884.92992328098512
 30
0.0
 11
457.84399972541371
 21
884.92992328098512
 31
0.0
  0
LINE
  8
001
  5
283
 10
458.69389972541364
 20
889.42992328098512
 30
0.0
 11
469.69389972541364
 21
889.42992328098512
 31
0.0
  0
LINE
  8
001
  5
284
 10
457.84399972541371
 20
888.5799232809851
 30
0.0
 11
457.84399972541371
 21
884.92992328098512
 31
0.0
  0
LINE
  8
001
 62
               4
  5
285
 10
640.19389972541364
 20
771.42992328098512
 30
0.0
 11
399.19399972541362
 21
771.42992328098512
 31
0.0
  0
LINE
  8
001
  5
286
 10
470.54389972541378
 20
888.5799232809851
 30
0.0
 11
470.54389972541378
 21
884.92992328098512
 31
0.0
  0
LINE
  8
001
 62
               3
  5
287
 10
826.47920481605229
 20
1090.4299232809849
 30
0.0
 11
896.47950481605221
 21
1090.4299232809849
 31
0.0
  0
LINE
  8
001
  5
288
 10
485.73569972541384
 20
824.92992328098512
 30
0.0
 11
495.19389972541364
 21
824.92992328098512
 31
0.0
  0
LINE
  8
001
  5
289
 10
495.19389972541364
 20
835.92992328098512
 30
0.0
 11
495.19389972541364
 21
824.92992328098512
 31
0.0
  0
LINE
  8
001
 62
               3
  5
28A
 10
896.47950481605221
 20
1092.9299232809849
 30
0.0
 11
896.47950481605221
 21
1080.4299232809849
 31
0.0
  0
LINE
  8
001
  5
28B
 10
419.69389972541364
 20
895.92992328098512
 30
0.0
 11
419.69389972541364
 21
881.92992328098512
 31
0.0
  0
LINE
  8
001
  5
28C
 10
419.19389972541364
 20
879.42992328098512
 30
0.0
 11
419.19389972541364
 21
882.92992328098512
 31
0.0
  0
LINE
  8
001
 62
               3
  5
28D
 10
405.19389972541364
 20
879.42992328098512
 30
0.0
 11
405.19399972541362
 21
882.42992328098512
 31
0.0
  0
LINE
  8
001
  5
28E
 10
412.19389972541364
 20
882.92992328098512
 30
0.0
 11
412.19389972541364
 21
879.42992328098512
 31
0.0
  0
LINE
  8
001
  5
28F
 10
418.54389972541367
 20
888.5799232809851
 30
0.0
 11
418.54389972541367
 21
884.92992328098512
 31
0.0
  0
LINE
  8
001
  5
290
 10
405.84389972541373
 20
888.5799232809851
 30
0.0
 11
405.84389972541373
 21
884.92992328098512
 31
0.0
  0
LINE
  8
001
  5
291
 10
406.69399972541362
 20
889.42992328098512
 30
0.0
 11
417.69389972541364
 21
889.42992328098512
 31
0.0
  0
LINE
  8
001
  5
292
 10
418.54389972541367
 20
884.92992328098512
 30
0.0
 11
405.84389972541373
 21
884.92992328098512
 31
0.0
  0
LINE
  8
001
  5
293
 10
418.54389972541367
 20
888.5799232809851
 30
0.0
 11
417.69389972541364
 21
889.42992328098512
 31
0.0
  0
LINE
  8
001
  5
294
 10
406.69399972541362
 20
889.42992328098512
 30
0.0
 11
405.84389972541373
 21
888.57992328098521
 31
0.0
  0
LINE
  8
001
  5
295
 10
405.84389972541373
 20
888.5799232809851
 30
0.0
 11
418.54389972541367
 21
888.5799232809851
 31
0.0
  0
LINE
  8
001
  5
296
 10
415.19389972541364
 20
884.92992328098512
 30
0.0
 11
415.19389972541364
 21
883.42992328098512
 31
0.0
  0
LINE
  8
001
  5
297
 10
409.19399972541362
 20
884.92992328098512
 30
0.0
 11
409.19399972541362
 21
883.42992328098512
 31
0.0
  0
LINE
  8
001
  5
298
 10
415.69389972541364
 20
883.42992328098512
 30
0.0
 11
408.69399972541362
 21
883.42992328098512
 31
0.0
  0
LINE
  8
001
  5
299
 10
427.19389972541364
 20
820.24882328098511
 30
0.0
 11
427.73149972541364
 21
821.17992328098512
 31
0.0
  0
LINE
  8
001
  5
29A
 10
430.45429972541365
 20
817.48812328098518
 30
0.0
 11
427.93359972541373
 21
817.48812328098518
 31
0.0
  0
LINE
  8
001
  5
29B
 10
431.19389972541364
 20
820.24882328098511
 30
0.0
 11
430.65639972541373
 21
821.17992328098512
 31
0.0
  0
LINE
  8
001
  5
29C
 10
430.45429972541365
 20
809.37162328098509
 30
0.0
 11
427.93359972541373
 21
809.37162328098509
 31
0.0
  0
LINE
  8
001
  5
29D
 10
431.19389972541364
 20
806.61102328098514
 30
0.0
 11
430.65639972541373
 21
805.67992328098512
 31
0.0
  0
LINE
  8
001
  5
29E
 10
427.19389972541364
 20
806.61092328098516
 30
0.0
 11
427.73149972541364
 21
805.67992328098512
 31
0.0
  0
LINE
  8
001
  5
29F
 10
431.19389972541364
 20
806.61102328098514
 30
0.0
 11
431.19389972541364
 21
820.24882328098511
 31
0.0
  0
LINE
  8
001
  5
2A0
 10
427.19389972541364
 20
806.61092328098516
 30
0.0
 11
427.19389972541364
 21
820.24882328098511
 31
0.0
  0
LINE
  8
001
  5
2A1
 10
432.69389972541364
 20
816.42992328098512
 30
0.0
 11
431.19389972541364
 21
816.42992328098512
 31
0.0
  0
LINE
  8
001
  5
2A2
 10
432.69389972541364
 20
810.42992328098512
 30
0.0
 11
431.19389972541364
 21
810.42992328098512
 31
0.0
  0
LINE
  8
001
  5
2A3
 10
436.34399972541371
 20
819.77992328098514
 30
0.0
 11
436.34399972541371
 21
807.07992328098521
 31
0.0
  0
LINE
  8
001
  5
2A4
 10
437.19389972541364
 20
818.92992328098512
 30
0.0
 11
436.34399972541371
 21
819.77992328098514
 31
0.0
  0
LINE
  8
001
  5
2A5
 10
436.34399972541371
 20
807.0799232809851
 30
0.0
 11
437.19389972541364
 21
807.92992328098512
 31
0.0
  0
LINE
  8
001
  5
2A6
 10
432.69389972541364
 20
807.0799232809851
 30
0.0
 11
432.69389972541364
 21
819.77992328098503
 31
0.0
  0
LINE
  8
001
  5
2A7
 10
437.19389972541364
 20
818.92992328098512
 30
0.0
 11
437.19389972541364
 21
807.92992328098512
 31
0.0
  0
LINE
  8
001
  5
2A8
 10
436.34399972541371
 20
819.77992328098514
 30
0.0
 11
432.69389972541364
 21
819.77992328098514
 31
0.0
  0
LINE
  8
001
  5
2A9
 10
430.65639972541373
 20
821.17992328098512
 30
0.0
 11
427.73149972541364
 21
821.17992328098512
 31
0.0
  0
LINE
  8
001
  5
2AA
 10
436.34399972541371
 20
807.0799232809851
 30
0.0
 11
432.69389972541364
 21
807.0799232809851
 31
0.0
  0
LINE
  8
001
  5
2AB
 10
427.73149972541364
 20
805.67992328098512
 30
0.0
 11
430.65639972541373
 21
805.67992328098512
 31
0.0
  0
LINE
  8
001
  5
2AC
 10
422.69389972541364
 20
881.42992328098512
 30
0.0
 11
422.69389972541364
 21
879.42992328098512
 31
0.0
  0
LINE
  8
001
  5
2AD
 10
420.19389972541364
 20
881.42992328098512
 30
0.0
 11
419.69389972541364
 21
881.92992328098512
 31
0.0
  0
LINE
  8
001
  5
2AE
 10
430.69389972541364
 20
881.92992328098512
 30
0.0
 11
430.19389972541364
 21
881.42992328098512
 31
0.0
  0
LINE
  8
001
  5
2AF
 10
419.69389972541364
 20
881.92992328098512
 30
0.0
 11
430.69389972541364
 21
881.92992328098512
 31
0.0
  0
LINE
  8
001
  5
2B0
 10
420.19389972541364
 20
881.42992328098512
 30
0.0
 11
430.19389972541364
 21
881.42992328098512
 31
0.0
  0
LINE
  8
001
  5
2B1
 10
419.69389972541364
 20
895.92992328098512
 30
0.0
 11
430.69389972541364
 21
895.92992328098512
 31
0.0
  0
LINE
  8
001
  5
2B2
 10
405.19389972541364
 20
879.42992328098512
 30
0.0
 11
405.19399972541362
 21
882.92992328098512
 31
0.0
  0
LINE
  8
001
  5
2B3
 10
420.19389972541364
 20
896.42992328098512
 30
0.0
 11
419.69389972541364
 21
895.92992328098512
 31
0.0
  0
LINE
  8
001
  5
2B4
 10
430.69389972541364
 20
895.92992328098512
 30
0.0
 11
430.19389972541364
 21
896.42992328098512
 31
0.0
  0
LINE
  8
001
  5
2B5
 10
420.19389972541364
 20
896.42992328098512
 30
0.0
 11
430.19389972541364
 21
896.42992328098512
 31
0.0
  0
LINE
  8
001
  5
2B6
 10
445.69389972541364
 20
895.92992328098512
 30
0.0
 11
445.69389972541364
 21
881.92992328098512
 31
0.0
  0
LINE
  8
001
  5
2B7
 10
456.69389972541364
 20
895.92992328098512
 30
0.0
 11
456.69389972541364
 21
881.92992328098512
 31
0.0
  0
LINE
  8
001
  5
2B8
 10
446.19389972541364
 20
896.42992328098512
 30
0.0
 11
456.19389972541364
 21
896.42992328098512
 31
0.0
  0
LINE
  8
001
  5
2B9
 10
456.69389972541364
 20
895.92992328098512
 30
0.0
 11
456.19389972541364
 21
896.42992328098512
 31
0.0
  0
LINE
  8
001
  5
2BA
 10
446.19389972541364
 20
896.42992328098512
 30
0.0
 11
445.69389972541364
 21
895.92992328098512
 31
0.0
  0
LINE
  8
001
  5
2BB
 10
445.69389972541364
 20
895.92992328098512
 30
0.0
 11
456.69389972541364
 21
895.92992328098512
 31
0.0
  0
LINE
  8
001
  5
2BC
 10
446.19389972541364
 20
881.42992328098512
 30
0.0
 11
456.19389972541364
 21
881.42992328098512
 31
0.0
  0
LINE
  8
001
  5
2BD
 10
445.69389972541364
 20
881.92992328098512
 30
0.0
 11
456.69389972541364
 21
881.92992328098512
 31
0.0
  0
LINE
  8
001
  5
2BE
 10
456.69389972541364
 20
881.92992328098512
 30
0.0
 11
456.19389972541364
 21
881.42992328098512
 31
0.0
  0
LINE
  8
001
  5
2BF
 10
446.19389972541364
 20
881.42992328098512
 30
0.0
 11
445.69389972541364
 21
881.92992328098512
 31
0.0
  0
LINE
  8
001
  5
2C0
 10
448.69389972541364
 20
881.42992328098512
 30
0.0
 11
448.69389972541364
 21
879.42992328098512
 31
0.0
  0
LINE
  8
001
  5
2C1
 10
453.69389972541364
 20
881.42992328098512
 30
0.0
 11
453.69389972541364
 21
879.42992328098512
 31
0.0
  0
LINE
  8
001
  5
2C2
 10
430.69389972541364
 20
895.92992328098512
 30
0.0
 11
430.69389972541364
 21
881.92992328098512
 31
0.0
  0
LINE
  8
001
  5
2C3
 10
427.69389972541364
 20
881.42992328098512
 30
0.0
 11
427.69389972541364
 21
879.42992328098512
 31
0.0
  0
LINE
  8
001
  5
2C4
 10
809.47900481605211
 20
815.42992328098512
 30
0.0
 11
809.47900481605211
 21
819.42992328098512
 31
0.0
  0
LINE
  8
001
  5
2C5
 10
819.47900481605211
 20
805.42992328098512
 30
0.0
 11
832.47890481605214
 21
805.42992328098512
 31
0.0
  0
LINE
  8
001
  5
2C6
 10
814.47900481605211
 20
879.42992328098512
 30
0.0
 11
817.47900481605211
 21
879.42992328098512
 31
0.0
  0
LINE
  8
001
  5
2C7
 10
464.19389972541364
 20
882.92992328098512
 30
0.0
 11
464.19389972541364
 21
879.42992328098512
 31
0.0
  0
LINE
  8
001
  6
DASHED
 62
               3
  5
2C8
 10
110.39409972541364
 20
965.30832328098506
 30
0.0
 11
93.694099725413594
 21
964.67572328098504
 31
0.0
  0
LINE
  8
001
  6
DASHED
 62
               3
  5
2C9
 10
110.39409972541364
 20
955.55152328098507
 30
0.0
 11
93.694099725413594
 21
956.184023280985
 31
0.0
  0
LINE
  8
001
 62
               3
  5
2CA
 10
110.39409972541364
 20
965.30832328098506
 30
0.0
 11
110.39409972541364
 21
955.55152328098507
 31
0.0
  0
LINE
  8
001
  5
2CB
 10
457.19389972541364
 20
879.42992328098512
 30
0.0
 11
457.19389972541364
 21
882.42992328098512
 31
0.0
  0
LINE
  8
001
  6
DASHED
 62
               3
  5
2CC
 10
93.694099725413594
 20
964.67572328098515
 30
0.0
 11
93.694099725413594
 21
956.18402328098512
 31
0.0
  0
LINE
  8
001
  5
2CD
 10
471.19389972541364
 20
879.42992328098512
 30
0.0
 11
471.19389972541364
 21
882.92992328098512
 31
0.0
  0
LINE
  8
001
 62
               3
  5
2CE
 10
828.97920481605229
 20
1095.4299232809849
 30
0.0
 11
893.97950481605221
 21
1095.4299232809849
 31
0.0
  0
LINE
  8
001
  5
2CF
 10
485.19389972541364
 20
825.47162328098511
 30
0.0
 11
485.19389972541364
 21
835.38822328098513
 31
0.0
  0
LINE
  8
001
  6
CENTER
  5
2D0
 10
559.48389972541383
 20
1075.4299232809849
 30
0.0
 11
575.50509972541374
 21
1075.4299232809849
 31
0.0
  0
LINE
  8
001
  5
2D1
 10
815.97900481605211
 20
895.92992328098512
 30
0.0
 11
817.47900481605211
 21
895.92992328098512
 31
0.0
  0
LINE
  8
001
  5
2D2
 10
816.47900481605211
 20
896.42992328098512
 30
0.0
 11
815.97900481605211
 21
895.92992328098512
 31
0.0
  0
LINE
  8
001
  5
2D3
 10
816.47900481605211
 20
896.42992328098512
 30
0.0
 11
817.47900481605211
 21
896.42992328098512
 31
0.0
  0
LINE
  8
001
  5
2D4
 10
815.97900481605211
 20
895.92992328098512
 30
0.0
 11
815.97900481605211
 21
889.42992328098512
 31
0.0
  0
LINE
  8
001
 62
               3
  5
2D5
 10
817.47900481605211
 20
889.48742328098513
 30
0.0
 11
817.44580481605203
 21
889.42992328098512
 31
0.0
  0
LINE
  8
001
  5
2D6
 10
485.73569972541384
 20
824.92992328098512
 30
0.0
 11
485.73569972541384
 21
835.92992328098512
 31
0.0
  0
LINE
  8
001
  5
2D7
 10
485.73569972541384
 20
824.92992328098512
 30
0.0
 11
485.19389972541364
 21
825.47162328098511
 31
0.0
  0
LINE
  8
001
  5
2D8
 10
485.73569972541384
 20
835.92992328098512
 30
0.0
 11
485.19389972541364
 21
835.38822328098513
 31
0.0
  0
LINE
  8
001
  5
2D9
 10
482.19389972541364
 20
826.14692328098511
 30
0.0
 11
485.19389972541364
 21
826.05262328098513
 31
0.0
  0
LINE
  8
001
  5
2DA
 10
482.19389972541364
 20
825.56592328098509
 30
0.0
 11
485.19389972541364
 21
825.47162328098511
 31
0.0
  0
LINE
  8
001
  5
2DB
 10
482.19389972541364
 20
834.71292328098514
 30
0.0
 11
485.19389972541364
 21
834.80722328098511
 31
0.0
  0
LINE
  8
001
  5
2DC
 10
482.19389972541364
 20
835.29392328098515
 30
0.0
 11
485.19389972541364
 21
835.38822328098513
 31
0.0
  0
LINE
  8
001
  5
2DD
 10
814.66010481605213
 20
883.42992328098512
 30
0.0
 11
813.72900481605211
 21
882.89232328098512
 31
0.0
  0
LINE
  8
001
 62
               3
  5
2DE
 10
566.19379972541367
 20
1056.4299232809849
 30
0.0
 11
564.19389972541364
 21
1080.4299232809849
 31
0.0
  0
LINE
  8
001
 62
               3
  5
2DF
 10
647.19389972541364
 20
1056.4299232809849
 30
0.0
 11
649.19389972541364
 21
1080.4299232809849
 31
0.0
  0
LINE
  8
001
 62
               3
  5
2E0
 10
644.19379972541367
 20
1053.4299232809851
 30
0.0
 11
647.19389972541364
 21
1056.4299232809851
 31
0.0
  0
LINE
  8
001
  5
2E1
 10
814.66010481605213
 20
879.42992328098512
 30
0.0
 11
813.72900481605211
 21
879.96752328098512
 31
0.0
  0
LINE
  8
001
 62
               3
  5
2E2
 10
569.19379972541367
 20
1053.4299232809851
 30
0.0
 11
566.19379972541367
 21
1056.4299232809851
 31
0.0
  0
LINE
  8
001
 62
               3
  5
2E3
 10
646.69389972541364
 20
1095.4299232809849
 30
0.0
 11
649.19389972541364
 21
1092.9299232809849
 31
0.0
  0
LINE
  8
001
  5
2E4
 10
817.47900481605211
 20
883.42992328098512
 30
0.0
 11
814.66010481605213
 21
883.42992328098512
 31
0.0
  0
LINE
  8
001
  5
2E5
 10
817.47900481605211
 20
879.42992328098512
 30
0.0
 11
814.66010481605213
 21
879.42992328098512
 31
0.0
  0
LINE
  8
001
 62
               3
  5
2E6
 10
566.69389972541364
 20
1095.4299232809849
 30
0.0
 11
564.19389972541364
 21
1092.9299232809849
 31
0.0
  0
LINE
  8
001
  5
2E7
 10
815.12910481605218
 20
888.5799232809851
 30
0.0
 11
817.47900481605211
 21
888.5799232809851
 31
0.0
  0
LINE
  8
001
  5
2E8
 10
815.97900481605211
 20
889.42992328098512
 30
0.0
 11
815.12910481605218
 21
888.57992328098521
 31
0.0
  0
LINE
  8
001
  5
2E9
 10
817.47900481605211
 20
884.92992328098512
 30
0.0
 11
815.12910481605218
 21
884.92992328098512
 31
0.0
  0
LINE
  8
001
  5
2EA
 10
815.97900481605211
 20
889.42992328098512
 30
0.0
 11
817.47900481605211
 21
889.42992328098512
 31
0.0
  0
LINE
  8
001
  5
2EB
 10
815.12910481605218
 20
888.5799232809851
 30
0.0
 11
815.12910481605218
 21
884.92992328098512
 31
0.0
  0
LINE
  8
001
  5
2EC
 10
813.72900481605211
 20
882.89232328098512
 30
0.0
 11
813.72900481605211
 21
879.96752328098512
 31
0.0
  0
LINE
  8
001
 62
               3
  5
2ED
 10
564.19389972541364
 20
1090.4299232809849
 30
0.0
 11
649.19389972541364
 21
1090.4299232809849
 31
0.0
  0
LINE
  8
001
  5
2EE
 10
815.97920481605229
 20
884.92992328098512
 30
0.0
 11
815.97920481605229
 21
883.42992328098512
 31
0.0
  0
LINE
  8
001
 62
               3
  5
2EF
 10
584.19389972541364
 20
810.42992328098512
 30
0.0
 11
584.19389972541364
 21
795.92992328098512
 31
0.0
  0
LINE
  8
001
 62
               3
  5
2F0
 10
649.19389972541364
 20
1092.9299232809849
 30
0.0
 11
649.19389972541364
 21
1080.4299232809849
 31
0.0
  0
LINE
  8
001
 62
               3
  5
2F1
 10
564.19389972541364
 20
1092.9299232809849
 30
0.0
 11
564.19389972541364
 21
1080.4299232809849
 31
0.0
  0
LINE
  8
001
 62
               3
  5
2F2
 10
566.69389972541364
 20
1095.4299232809849
 30
0.0
 11
646.69389972541364
 21
1095.4299232809849
 31
0.0
  0
LINE
  8
001
 62
               3
  5
2F3
 10
666.19389972541364
 20
1053.4299232809851
 30
0.0
 11
666.19389972541364
 21
947.4300232809851
 31
0.0
  0
LINE
  8
001
 62
               3
  5
2F4
 10
917.80950481605214
 20
983.9961232809851
 30
0.0
 11
916.72950481605221
 21
982.12582328098506
 31
0.0
  0
LINE
  8
001
 62
               3
  5
2F5
 10
827.12690481605227
 20
1054.9299232809849
 30
0.0
 11
805.14900481605218
 21
1016.863223280985
 31
0.0
  0
LINE
  8
001
 62
               3
  5
2F6
 10
805.14900481605218
 20
983.99652328098512
 30
0.0
 11
806.22900481605211
 21
982.12562328098511
 31
0.0
  0
LINE
  8
001
 62
               3
  5
2F7
 10
895.8315048160523
 20
1054.9298232809851
 30
0.0
 11
917.80950481605214
 21
1016.8632232809853
 31
0.0
  0
LINE
  8
001
 62
               3
  5
2F8
 10
804.47900481605211
 20
986.49652328098512
 30
0.0
 11
804.47900481605211
 21
1014.3632232809852
 31
0.0
  0
LINE
  8
001
 62
               3
  5
2F9
 10
918.47850481605224
 20
1014.3632232809852
 30
0.0
 11
918.47850481605224
 21
986.4961232809851
 31
0.0
  0
LINE
  8
001
 62
               4
  5
2FA
 10
620.19389972541364
 20
823.42992328098512
 30
0.0
 11
620.19389972541364
 21
926.42992328098512
 31
0.0
  0
LINE
  8
001
 62
               4
  5
2FB
 10
640.19389972541364
 20
773.42992328098512
 30
0.0
 11
399.19399972541362
 21
773.42992328098512
 31
0.0
  0
LINE
  8
001
 62
               3
  5
2FC
 10
713.19389972541364
 20
1251.0498224470668
 30
0.0
 11
721.11609972541385
 21
1240.4259224470668
 31
0.0
  0
LINE
  8
001
  6
PHANTOM
 62
               3
  5
2FD
 10
116.9259997254137
 20
1035.4297232809849
 30
0.0
 11
122.19389972541364
 21
1035.4297232809849
 31
0.0
  0
LINE
  8
001
  6
PHANTOM
 62
               3
  5
2FE
 10
115.19389972541364
 20
1036.4297232809849
 30
0.0
 11
116.9259997254137
 21
1035.4297232809849
 31
0.0
  0
LINE
  8
001
  6
PHANTOM
 62
               3
  5
2FF
 10
110.39409972541364
 20
1055.6799232809849
 30
0.0
 11
112.19389972541364
 21
1055.6799232809849
 31
0.0
  0
LINE
  8
001
  6
PHANTOM
 62
               3
  5
300
 10
110.39409972541364
 20
1065.1799232809849
 30
0.0
 11
112.19409972541371
 21
1065.1799232809849
 31
0.0
  0
LINE
  8
001
  6
PHANTOM
 62
               3
  5
301
 10
115.19389972541364
 20
1084.4296232809852
 30
0.0
 11
115.19389972541364
 21
1036.4297232809852
 31
0.0
  0
LINE
  8
001
  6
PHANTOM
 62
               3
  5
302
 10
116.92609972541368
 20
935.42972328098506
 30
0.0
 11
122.19399972541362
 21
935.42972328098506
 31
0.0
  0
LINE
  8
001
  6
PHANTOM
 62
               3
  5
303
 10
115.19399972541362
 20
936.42972328098506
 30
0.0
 11
116.92609972541368
 21
935.42972328098506
 31
0.0
  0
LINE
  8
001
  6
PHANTOM
 62
               3
  5
304
 10
116.92609972541368
 20
985.42972328098506
 30
0.0
 11
122.19399972541362
 21
985.42972328098506
 31
0.0
  0
LINE
  8
001
  6
PHANTOM
 62
               3
  5
305
 10
115.19399972541362
 20
984.42972328098506
 30
0.0
 11
116.92609972541368
 21
985.42972328098506
 31
0.0
  0
LINE
  8
001
  6
PHANTOM
 62
               3
  5
306
 10
115.19399972541362
 20
984.42972328098506
 30
0.0
 11
115.19399972541362
 21
936.42972328098506
 31
0.0
  0
LINE
  8
001
  6
PHANTOM
 62
               3
  5
307
 10
110.39419972541361
 20
955.67992328098512
 30
0.0
 11
112.19399972541362
 21
955.67992328098512
 31
0.0
  0
LINE
  8
001
  6
PHANTOM
 62
               3
  5
308
 10
110.39419972541361
 20
965.17992328098512
 30
0.0
 11
112.19419972541368
 21
965.17992328098512
 31
0.0
  0
LINE
  8
001
  6
PHANTOM
 62
               3
  5
309
 10
116.9259997254137
 20
1085.4296232809852
 30
0.0
 11
122.19389972541364
 21
1085.4296232809852
 31
0.0
  0
LINE
  8
001
  6
PHANTOM
 62
               3
  5
30A
 10
115.19389972541364
 20
1084.4296232809852
 30
0.0
 11
116.9259997254137
 21
1085.4296232809852
 31
0.0
  0
LINE
  8
001
 62
               4
  5
30B
 10
640.19389972541364
 20
806.42992328098512
 30
0.0
 11
640.19389972541364
 21
823.42992328098512
 31
0.0
  0
LINE
  8
001
 62
               4
  5
30C
 10
640.19389972541364
 20
771.42992328098512
 30
0.0
 11
640.19389972541364
 21
782.42992328098512
 31
0.0
  0
LINE
  8
001
 62
               3
  5
30D
 10
396.19399972541362
 20
1173.6392204739172
 30
0.0
 11
396.19399972541362
 21
1247.6391204739173
 31
0.0
  0
LINE
  8
001
 62
               3
  5
30E
 10
399.19399972541362
 20
1173.639221657807
 30
0.0
 11
399.19399972541373
 21
1181.6391216578018
 31
0.0
  0
LINE
  8
001
 62
               4
  5
30F
 10
399.19327245268641
 20
1260.6393224470667
 30
0.0
 11
404.94619287663863
 21
1260.6393224470667
 31
0.0
  0
LINE
  8
001
 62
               4
  5
310
 10
399.19327245268641
 20
1262.6393224470667
 30
0.0
 11
406.74410012742487
 21
1262.6393224470667
 31
0.0
  0
LINE
  8
001
 62
               4
  5
311
 10
399.19327245268641
 20
1156.6393224470667
 30
0.0
 11
399.19327245268641
 21
1262.6393224470667
 31
0.0
  0
LINE
  8
001
 62
               4
  5
312
 10
399.19327245268641
 20
1156.6393224470667
 30
0.0
 11
409.24412535434737
 21
1156.6393224470667
 31
0.0
  0
LINE
  8
001
 62
               4
  5
313
 10
399.19317245268621
 20
1158.6393224470667
 30
0.0
 11
406.74410012742487
 21
1158.6393224470667
 31
0.0
  0
LINE
  8
001
  5
314
 10
401.19398972541376
 20
1158.6391216578018
 30
0.0
 11
406.74430979197371
 21
1158.6391216578018
 31
0.0
  0
LINE
  8
001
  5
315
 10
399.19399972541373
 20
1160.6391216578018
 30
0.0
 11
399.19399972541373
 21
1181.6391216578018
 31
0.0
  0
LINE
  8
001
 62
               3
  5
316
 10
411.60679972541368
 20
619.42992328098512
 30
0.0
 11
411.60679972541368
 21
607.42992328098512
 31
0.0
  0
LINE
  8
001
 62
               3
  5
317
 10
409.48449972541368
 20
607.4300232809851
 30
0.0
 11
411.60679972541368
 21
607.42992328098512
 31
0.0
  0
LINE
  8
001
 62
               3
  5
318
 10
397.78759972541377
 20
625.4300232809851
 30
0.0
 11
426.48259972541371
 21
625.42992328098512
 31
0.0
  0
LINE
  8
001
 62
               3
  5
319
 10
429.23749972541373
 20
621.36012328098514
 30
0.0
 11
429.38839972541371
 21
625.67992328098512
 31
0.0
  0
LINE
  8
001
 62
               3
  5
31A
 10
409.29159972541368
 20
596.37752328098509
 30
0.0
 11
409.6596997254137
 21
617.46482328098512
 31
0.0
  0
LINE
  8
001
 62
               3
  5
31B
 10
411.65939972541366
 20
619.42992328098512
 30
0.0
 11
427.23869972541365
 21
619.42992328098512
 31
0.0
  0
LINE
  8
001
 62
               3
  5
31C
 10
401.80219972541374
 20
593.42992328098512
 30
0.0
 11
406.29209972541366
 21
593.42992328098512
 31
0.0
  0
LINE
  8
001
 62
               3
  5
31D
 10
398.80399972541375
 20
596.32522328098514
 30
0.0
 11
397.22769972541369
 21
641.46482328098512
 31
0.0
  0
LINE
  8
001
 62
               3
  5
31E
 10
401.19399972541362
 20
713.42992328098512
 30
0.0
 11
465.25668480143383
 21
713.42992328098512
 31
0.0
  0
LINE
  8
001
 62
               3
  5
31F
 10
396.22829972541365
 20
642.42992328098512
 30
0.0
 11
396.19399972541362
 21
642.42992328098512
 31
0.0
  0
LINE
  8
001
 62
               3
  5
320
 10
397.19399972541362
 20
717.42992328098512
 30
0.0
 11
396.19399972541362
 21
717.42992328098512
 31
0.0
  0
LINE
  8
001
 62
               3
  5
321
 10
396.19399972541362
 20
717.42992328098512
 30
0.0
 11
396.19399972541362
 21
642.42992328098512
 31
0.0
  0
LINE
  8
001
 62
               3
  5
322
 10
396.19399972541362
 20
717.42992328098512
 30
0.0
 11
396.19399972541362
 21
643.42972328098517
 31
0.0
  0
LINE
  8
001
 62
               4
  5
323
 10
399.19399972541362
 20
746.42992328098512
 30
0.0
 11
399.19399972541362
 21
591.42992328098512
 31
0.0
  0
LINE
  8
001
 62
               2
  5
324
 10
399.19399972541362
 20
692.42992328098512
 30
0.0
 11
399.19399972541362
 21
648.42992328098512
 31
0.0
  0
LINE
  8
001
 62
               2
  5
325
 10
424.51549972541363
 20
643.42992328098512
 30
0.0
 11
444.19399972541373
 21
643.42992328098512
 31
0.0
  0
LINE
  8
001
 62
               2
  5
326
 10
449.19399972541373
 20
692.42992328098512
 30
0.0
 11
449.19399972541373
 21
648.42992328098512
 31
0.0
  0
LINE
  8
001
 62
               2
  5
327
 10
404.19399972541362
 20
643.42992328098512
 30
0.0
 11
419.87219972541368
 21
643.42992328098512
 31
0.0
  0
LINE
  8
001
 62
               2
  5
328
 10
404.19399972541362
 20
697.42992328098512
 30
0.0
 11
444.19399972541373
 21
697.42992328098512
 31
0.0
  0
LINE
  8
001
 62
               3
  5
329
 10
429.38839972541371
 20
625.67992328098512
 30
0.0
 11
429.50279972541364
 21
628.95362328098508
 31
0.0
  0
LINE
  8
001
  6
CENTER
  5
32A
 10
475.46306476445341
 20
680.42992328098512
 30
0.0
 11
363.71859689338237
 21
680.42992328098512
 31
0.0
  0
LINE
  8
001
 62
               3
  5
32B
 10
444.49359972541367
 20
643.42992328098512
 30
0.0
 11
459.13247835461925
 21
643.42992328098512
 31
0.0
  0
LINE
  8
001
 62
               4
  5
32C
 10
407.19399972541362
 20
734.42992328098512
 30
0.0
 11
467.0939467354782
 21
734.42992328098512
 31
0.0
  0
LINE
  8
001
 62
               4
  5
32D
 10
468.14381069778926
 20
746.42992328098512
 30
0.0
 11
399.19399972541362
 21
746.42992328098512
 31
0.0
  0
LINE
  8
001
 62
               4
  5
32E
 10
454.58306785127115
 20
591.42992328098512
 30
0.0
 11
399.19399972541362
 21
591.42992328098512
 31
0.0
  0
LINE
  8
001
 62
               4
  5
32F
 10
454.75804517832307
 20
593.42992328098512
 30
0.0
 11
399.19399972541362
 21
593.42992328098512
 31
0.0
  0
LINE
  8
001
  6
CENTER
  5
330
 10
126.29289874882841
 20
960.42992328098512
 30
0.0
 11
55.821052850413594
 21
960.42992328098512
 31
0.0
  0
LINE
  8
001
  6
CENTER
  5
331
 10
113.39399972541366
 20
1060.4299232809849
 30
0.0
 11
57.745086151194869
 21
1060.4298969070924
 31
0.0
  0
LINE
  8
001
 62
               3
  5
332
 10
817.47826295575214
 20
829.4300256080403
 30
0.0
 11
817.47845967557669
 21
914.0195256078116
 31
0.0
  0
LINE
  8
001
 62
               3
  5
333
 10
147.79274617517683
 20
897.42992328098512
 30
0.0
 11
396.19399972541362
 21
897.42992328098512
 31
0.0
  0
LINE
  8
001
 62
               3
  5
334
 10
147.79162652541379
 20
823.42992328098512
 30
0.0
 11
396.19399972541362
 21
823.42992328098512
 31
0.0
  0
LINE
  8
001
 62
               3
  5
335
 10
116.92634612541363
 20
885.42992328098512
 30
0.0
 11
142.19399972541362
 21
885.42992328098512
 31
0.0
  0
LINE
  8
001
 62
               3
  5
336
 10
116.92582652541375
 20
835.42992328098512
 30
0.0
 11
142.19399972541362
 21
835.42992328098512
 31
0.0
  0
LINE
  8
001
 62
               3
  5
337
 10
116.92651932541358
 20
1235.6393224470667
 30
0.0
 11
142.19399972541362
 21
1235.6393224470667
 31
0.0
  0
LINE
  8
001
 62
               3
  5
338
 10
116.92565332541378
 20
1185.6393224470667
 30
0.0
 11
142.19399972541362
 21
1185.6393224470667
 31
0.0
  0
LINE
  8
001
 62
               3
  5
339
 10
147.79311940005837
 20
1247.6393224470667
 30
0.0
 11
399.19327245268641
 21
1247.6393224470667
 31
0.0
  0
LINE
  8
001
 62
               3
  5
33A
 10
147.79125332541386
 20
1173.6393224470667
 30
0.0
 11
399.19327245268641
 21
1173.6393224470667
 31
0.0
  0
LINE
  8
001
  5
33B
 10
405.19389972541364
 20
879.42992328098512
 30
0.0
 11
419.19389972541364
 21
879.42992328098512
 31
0.0
  0
LINE
  8
001
 62
               3
  5
33C
 10
374.60657842038131
 20
717.42992328098512
 30
0.0
 11
396.19399972541362
 21
717.42992328098512
 31
0.0
  0
LINE
  8
001
 62
               3
  5
33D
 10
368.13241731946272
 20
643.42992328098512
 30
0.0
 11
396.19399972541362
 21
643.42992328098512
 31
0.0
  0
LINE
  8
001
  6
PHANTOM
  5
33E
 10
754.19389972541364
 20
807.02992328098514
 30
0.0
 11
754.19389972541364
 21
781.82992328098521
 31
0.0
  0
LINE
  8
001
  6
PHANTOM
  5
33F
 10
752.69389972541364
 20
780.3299232809851
 30
0.0
 11
744.69389972541364
 21
780.3299232809851
 31
0.0
  0
LINE
  8
001
  6
PHANTOM
  5
340
 10
752.69389972541364
 20
808.52992328098514
 30
0.0
 11
744.69389972541364
 21
808.52992328098514
 31
0.0
  0
LINE
  8
001
  6
PHANTOM
  5
341
 10
744.69389972541364
 20
808.52992328098514
 30
0.0
 11
744.69389972541364
 21
808.01060787756205
 31
0.0
  0
LINE
  8
001
  6
PHANTOM
  5
342
 10
735.19389972541364
 20
807.42992328098512
 30
0.0
 11
744.69389972541364
 21
808.01060787756205
 31
0.0
  0
LINE
  8
001
  6
PHANTOM
  5
343
 10
735.19389972541364
 20
781.42992328098512
 30
0.0
 11
744.69389972541364
 21
780.84923868440808
 31
0.0
  0
LINE
  8
001
  6
PHANTOM
  5
344
 10
744.69389972541364
 20
780.84923868440808
 30
0.0
 11
744.69389972541364
 21
780.3299232809851
 31
0.0
  0
LINE
  8
001
  6
PHANTOM
  5
345
 10
754.19389972541364
 20
1238.2392474947796
 30
0.0
 11
754.19389972541364
 21
1213.0392474947798
 31
0.0
  0
LINE
  8
001
  6
PHANTOM
  5
346
 10
752.69389972541364
 20
1211.5392474947798
 30
0.0
 11
744.69389972541364
 21
1211.5392474947798
 31
0.0
  0
LINE
  8
001
  6
PHANTOM
  5
347
 10
752.69389972541364
 20
1239.7392474947796
 30
0.0
 11
744.69389972541364
 21
1239.7392474947796
 31
0.0
  0
LINE
  8
001
  6
PHANTOM
  5
348
 10
744.69389972541364
 20
1239.7392474947796
 30
0.0
 11
744.69389972541364
 21
1239.2199320913567
 31
0.0
  0
LINE
  8
001
  6
PHANTOM
  5
349
 10
735.19389972541364
 20
1238.6392474947797
 30
0.0
 11
744.69389972541364
 21
1239.2199320913567
 31
0.0
  0
LINE
  8
001
  6
PHANTOM
  5
34A
 10
735.19389972541364
 20
1212.6392474947797
 30
0.0
 11
744.69389972541364
 21
1212.0585628982026
 31
0.0
  0
LINE
  8
001
  6
PHANTOM
  5
34B
 10
744.69389972541364
 20
1212.0585628982026
 30
0.0
 11
744.69389972541364
 21
1211.5392474947796
 31
0.0
  0
LINE
  8
001
 62
               3
  5
34C
 10
409.24412535434737
 20
1156.6393224470667
 30
0.0
 11
402.69327245268641
 21
1156.6393224470667
 31
0.0
  0
LINE
  8
001
 62
               3
  5
34D
 10
410.94778847417831
 20
1155.6393224470667
 30
0.0
 11
400.19327245268641
 21
1155.6393224470667
 31
0.0
  0
LINE
  8
001
 62
               3
  5
34E
 10
416.69327245268641
 20
1149.6393224470667
 30
0.0
 11
400.69327245268641
 21
1149.6393224470667
 31
0.0
  0
LINE
  8
001
 62
               3
  5
34F
 10
402.69327245268641
 20
1155.6393224470667
 30
0.0
 11
402.69327245268641
 21
1156.6393224470667
 31
0.0
  0
LINE
  8
001
 62
               3
  5
350
 10
416.69327245268641
 20
1149.6393224470667
 30
0.0
 11
417.03741061882062
 21
1153.7689804406773
 31
0.0
  0
LINE
  8
001
 62
               3
  5
351
 10
400.69327245268641
 20
1149.6393224470667
 30
0.0
 11
400.19327245268641
 21
1155.6393224470667
 31
0.0
  0
LINE
  8
001
 62
               3
  5
352
 10
907.47950481605221
 20
848.43165632987404
 30
0.0
 11
907.47950481605221
 21
832.43165632987404
 31
0.0
  0
LINE
  8
001
 62
               3
  5
353
 10
907.47950481605221
 20
848.43165632987404
 30
0.0
 11
905.47950481605221
 21
848.59832299654067
 31
0.0
  0
LINE
  8
001
 62
               3
  5
354
 10
907.47950481605221
 20
832.43165632987404
 30
0.0
 11
905.47950481605221
 21
832.26498966320742
 31
0.0
  0
LINE
  8
001
 62
               3
  5
355
 10
815.47900481605211
 20
830.4300232809851
 30
0.0
 11
815.47900481605211
 21
846.4300232809851
 31
0.0
  0
LINE
  8
001
 62
               3
  5
356
 10
815.47900481605211
 20
830.4300232809851
 30
0.0
 11
817.47826489387512
 21
830.26341827449983
 31
0.0
  0
LINE
  8
001
 62
               3
  5
357
 10
815.47900481605211
 20
846.4300232809851
 30
0.0
 11
817.47830287810291
 21
846.59663145282263
 31
0.0
  0
LINE
  8
001
 62
               3
  5
358
 10
807.47900481605211
 20
820.92992328098512
 30
0.0
 11
807.47900481605211
 21
826.69790247341621
 31
0.0
  0
LINE
  8
001
 62
               3
  5
359
 10
806.47900481605211
 20
818.42992328098512
 30
0.0
 11
806.47900481605211
 21
827.27525274260597
 31
0.0
  0
LINE
  8
001
 62
               3
  5
35A
 10
800.47900481605211
 20
818.92992328098512
 30
0.0
 11
800.47900481605211
 21
832.06252343424285
 31
0.0
  0
LINE
  8
001
 62
               3
  5
35B
 10
806.47900481605211
 20
820.92992328098512
 30
0.0
 11
807.47900481605211
 21
820.92992328098512
 31
0.0
  0
LINE
  8
001
 62
               3
  5
35C
 10
800.47900481605211
 20
818.92992328098512
 30
0.0
 11
806.47900481605211
 21
818.42992328098512
 31
0.0
  0
LINE
  8
001
  5
35D
 10
814.47900481605211
 20
823.42995328098516
 30
0.0
 11
818.9464304872007
 21
823.42994583523432
 31
0.0
  0
LINE
  8
001
  5
35E
 10
453.02246685015984
 20
1148.6393224470667
 30
0.0
 11
480.19403972541363
 21
1148.6393224470667
 31
0.0
  0
LINE
  8
001
  5
35F
 10
451.60825328778674
 20
1149.2251088846936
 30
0.0
 11
447.19403972541363
 21
1153.6393224470667
 31
0.0
  0
LINE
  8
001
  5
360
 10
799.47900481605211
 20
835.93550678045028
 30
0.0
 11
799.47900481605211
 21
853.03761843557186
 31
0.0
  0
LINE
  8
001
  5
361
 10
808.47900481605211
 20
862.85257301179547
 30
0.0
 11
803.47900481605211
 21
859.96582166584733
 31
0.0
  0
LINE
  8
001
  5
362
 10
811.97900481605211
 20
824.09982626206295
 30
0.0
 11
803.47900481605211
 21
829.00730355017481
 31
0.0
  0
LINE
  8
001
  5
363
 10
454.19389972541364
 20
857.6563905890888
 30
0.0
 11
482.19389972541364
 21
857.6563905890888
 31
0.0
  0
LINE
  8
001
  5
364
 10
444.19389972541364
 20
863.42989328098508
 30
0.0
 11
482.19389972541364
 21
863.42989328098508
 31
0.0
  0
LINE
  8
001
  5
365
 10
454.19389972541364
 20
831.31667462693326
 30
0.0
 11
482.19389972541364
 21
831.31667462693326
 31
0.0
  0
LINE
  8
001
  5
366
 10
452.19389972541364
 20
833.31667462693326
 30
0.0
 11
452.19389972541364
 21
855.6563905890888
 31
0.0
  0
LINE
  8
001
  5
367
 10
442.19389972541364
 20
825.42992328098512
 30
0.0
 11
442.19389972541364
 21
861.42989328098508
 31
0.0
  0
LINE
  8
001
  5
368
 10
482.19389972541364
 20
1150.6156585420645
 30
0.0
 11
482.19389972541364
 21
1153.6393224470667
 31
0.0
  0
LINE
  8
001
  5
369
 10
809.47900481605211
 20
864.58462381936442
 30
0.0
 11
809.47900481605211
 21
874.42992328098512
 31
0.0
  0
LINE
  8
001
  5
36A
 10
371.19518638442668
 20
678.43753388480161
 30
0.0
 11
367.56449289966514
 21
679.75899824299904
 31
0.0
  0
LINE
  8
001
  5
36B
 10
375.17450284017883
 20
681.1008483189712
 30
0.0
 11
367.56449289966514
 21
679.75899824299904
 31
0.0
  0
LINE
  8
001
  5
36C
 10
371.54380935541735
 20
682.42231267716863
 30
0.0
 11
375.17450284017883
 21
681.1008483189712
 31
0.0
  0
LINE
  8
001
  5
36D
 10
367.33913260440534
 20
634.36263749689829
 30
0.0
 11
371.19518638442668
 21
678.43753388480161
 31
0.0
  0
LINE
  8
001
  5
36E
 10
371.54380935541747
 20
682.42231267716852
 30
0.0
 11
375.55203767891459
 21
728.23657205615018
 31
0.0
  0
LINE
  8
001
  5
36F
 10
465.7436312312484
 20
718.99574644240829
 30
0.0
 11
462.11293774648698
 21
720.31721080060572
 31
0.0
  0
LINE
  8
001
  5
370
 10
469.72294768700056
 20
721.65906087657788
 30
0.0
 11
462.11293774648698
 21
720.31721080060572
 31
0.0
  0
LINE
  8
001
  5
371
 10
466.09225420223902
 20
722.98052523477531
 30
0.0
 11
469.72294768700056
 21
721.659060876578
 31
0.0
  0
LINE
  8
001
  5
372
 10
457.89961438395926
 20
629.33822361415127
 30
0.0
 11
454.26892089919772
 21
630.65968797234871
 31
0.0
  0
LINE
  8
001
  5
373
 10
461.87893083971142
 20
632.00153804832075
 30
0.0
 11
454.26892089919772
 21
630.65968797234859
 31
0.0
  0
LINE
  8
001
  5
374
 10
458.24823735494988
 20
633.32300240651819
 30
0.0
 11
461.87893083971142
 21
632.00153804832075
 31
0.0
  0
LINE
  8
001
  5
375
 10
453.63127775326086
 20
580.55091267947694
 30
0.0
 11
457.89961438395926
 21
629.33822361415127
 31
0.0
  0
LINE
  8
001
  5
376
 10
458.24823735494988
 20
633.32300240651819
 30
0.0
 11
465.7436312312484
 21
718.99574644240829
 31
0.0
  0
LINE
  8
001
  5
377
 10
466.09225420223902
 20
722.98052523477531
 30
0.0
 11
469.06094101672034
 21
756.91277079481551
 31
0.0
  0
ARC
  8
001
 62
               3
  5
378
 10
397.19399972541362
 20
895.42992328098512
 30
0.0
 40
2.000000000000008
 50
0.0
 51
89.999130000000349
  0
ARC
  8
001
 62
               3
  5
379
 10
401.19399972541362
 20
895.42992328098512
 30
0.0
 40
2.0
 50
180.0
 51
270.0
  0
ARC
  8
001
 62
               3
  5
37A
 10
604.19389972541364
 20
895.42992328098512
 30
0.0
 40
2.0
 50
270.0
 51
0.0
  0
ARC
  8
001
 62
               3
  5
37B
 10
608.19389972541364
 20
895.42992328098512
 30
0.0
 40
2.0
 50
90.0
 51
180.0
  0
ARC
  8
001
 62
               3
  5
37C
 10
396.22829972541365
 20
821.42992328098512
 30
0.0
 40
1.0
 50
2.0002879999996002
 51
90.0
  0
ARC
  8
001
 62
               3
  5
37D
 10
401.80219972541374
 20
776.42982328098515
 30
0.0
 40
3.0
 50
181.99999999999994
 51
270.0
  0
ARC
  8
001
 62
               3
  5
37E
 10
406.29209972541366
 20
776.42992328098512
 30
0.0
 40
3.0000000000000209
 50
270.0
 51
358.99979400000007
  0
ARC
  8
001
 62
               3
  5
37F
 10
427.23869972541365
 20
801.42992328098512
 30
0.0
 40
1.9999999999999751
 50
270.00042999999931
 51
358.00036600000072
  0
ARC
  8
001
 62
               3
  5
380
 10
444.49359972541367
 20
808.42992328098512
 30
0.0
 40
15.000000000000009
 50
90.000059999999962
 51
130.8283999999999
  0
ARC
  8
001
 62
               3
  5
381
 10
426.48259972541371
 20
808.42992328098512
 30
0.0
 40
3.0000000000000102
 50
270.00028999999989
 51
294.38602999999978
  0
ARC
  8
001
 62
               3
  5
382
 10
411.65939972541366
 20
797.42992328098512
 30
0.0
 40
2.0000000000000262
 50
90.0
 51
179.00000000000011
  0
ARC
  8
001
  5
383
 10
604.0282997254136
 20
813.42992328098512
 30
0.0
 40
8.1657100000000398
 50
339.34131000000019
 51
20.658689999999794
  0
ARC
  8
001
 62
               3
  5
384
 10
891.23050481605219
 20
776.42982328098515
 30
0.0
 40
3.0000000000000919
 50
270.0
 51
355.00000799999981
  0
ARC
  8
001
 62
               3
  5
385
 10
848.78090481605227
 20
776.42992328098512
 30
0.0
 40
3.000000000000008
 50
195.0000999999998
 51
269.99940999999922
  0
ARC
  8
001
 62
               3
  5
386
 10
835.60270481605221
 20
802.42992328098512
 30
0.0
 40
3.0
 50
15.000090000000018
 51
90.0
  0
ARC
  8
001
 62
               3
  5
387
 10
831.60400481605211
 20
808.42992328098512
 30
0.0
 40
3.000000000000008
 50
195.00010000000029
 51
269.99940999999922
  0
ARC
  8
001
  5
388
 10
580.35969972541363
 20
813.42992328098512
 30
0.0
 40
8.1657099999999918
 50
159.34129999999996
 51
200.65870000000004
  0
ARC
  8
001
  5
389
 10
574.98109972541363
 20
808.92082328098513
 30
0.0
 40
2.7870309999999834
 50
144.25329999999994
 51
180.11189999999874
  0
ARC
  8
001
  5
38A
 10
574.98109972541363
 20
817.93892328098514
 30
0.0
 40
2.7870309999999887
 50
179.88810000000126
 51
215.74670000000006
  0
ARC
  8
001
  5
38B
 10
609.40699972541381
 20
817.93892328098514
 30
0.0
 40
2.7870310000000487
 50
324.25329999999991
 51
0.1118773999971521
  0
ARC
  8
001
  5
38C
 10
609.40699972541381
 20
808.92082328098513
 30
0.0
 40
2.7870309999999887
 50
359.88812260000287
 51
35.746700000000097
  0
ARC
  8
001
 62
               3
  5
38D
 10
731.65659972541368
 20
807.02992328098514
 30
0.0
 40
1.5
 50
0.0
 51
90.0
  0
ARC
  8
001
 62
               3
  5
38E
 10
731.65659972541368
 20
781.8299232809851
 30
0.0
 40
1.5
 50
270.0
 51
0.0
  0
ARC
  8
001
 62
               3
  5
38F
 10
594.19389972541364
 20
788.16612328098518
 30
0.0
 40
8.7362399999999756
 50
250.70490000000026
 51
289.29509999999971
  0
CIRCLE
  8
001
 62
               3
  5
390
 10
876.47900481605211
 20
794.42992328098512
 30
0.0
 40
14.099999999999909
  0
ARC
  8
001
 62
               3
  5
391
 10
876.47900481605211
 20
794.42992328098512
 30
0.0
 40
15.999999999999998
 50
223.4325
 51
46.186750000000053
  0
ARC
  8
001
 62
               3
  5
392
 10
851.47900481605211
 20
784.42982328098515
 30
0.0
 40
1.0
 50
180.00129999983798
 51
270.0
  0
ARC
  8
001
 62
               3
  5
393
 10
894.47950481605221
 20
813.19152328098517
 30
0.0
 40
10.000000000000025
 50
180.0
 51
226.18680000000001
  0
ARC
  8
001
 62
               3
  5
394
 10
845.47900481605211
 20
802.42992328098512
 30
0.0
 40
5.0
 50
0.0
 51
90.0
  0
ARC
  8
001
 62
               3
  5
395
 10
819.47900481605211
 20
813.42992328098512
 30
0.0
 40
6.0
 50
90.0
 51
270.0
  0
ARC
  8
001
 62
               3
  5
396
 10
855.47890481605214
 20
786.04342328098505
 30
0.0
 40
6.6135229999999643
 50
247.78940000000085
 51
292.21059999999915
  0
CIRCLE
  8
001
  5
397
 10
819.47900481605211
 20
813.42992328098512
 30
0.0
 40
3.0
  0
CIRCLE
  8
001
  5
398
 10
819.47900481605211
 20
813.42992328098512
 30
0.0
 40
2.5
  0
ARC
  8
001
 62
               4
  5
399
 10
909.47950481605221
 20
911.72832328098514
 30
0.0
 40
4.000000000000024
 50
0.0
 51
59.999959999999483
  0
ARC
  8
001
 62
               4
  5
39A
 10
909.47950481605221
 20
911.72832328098514
 30
0.0
 40
2.0000000000000235
 50
0.0
 51
59.999849999999213
  0
ARC
  8
001
 62
               4
  5
39B
 10
909.47950481605221
 20
869.25822328098513
 30
0.0
 40
4.0
 50
315.0
 51
0.0
  0
ARC
  8
001
 62
               4
  5
39C
 10
909.47950481605221
 20
869.25822328098513
 30
0.0
 40
2.0
 50
314.99969000000084
 51
0.0
  0
ARC
  8
001
 62
               4
  5
39D
 10
896.47950481605221
 20
775.42992328098512
 30
0.0
 40
4.0
 50
270.0
 51
0.0
  0
ARC
  8
001
 62
               4
  5
39E
 10
822.8794048160521
 20
775.42992328098512
 30
0.0
 40
3.9999999999999911
 50
200.00019999999986
 51
269.99911999999932
  0
ARC
  8
001
 62
               4
  5
39F
 10
811.47900481605211
 20
806.75222328098516
 30
0.0
 40
3.9999999999999893
 50
180.0
 51
200.00000000000009
  0
ARC
  8
001
 62
               4
  5
3A0
 10
809.47900481605211
 20
806.39952328098514
 30
0.0
 40
1.9999999999999865
 50
180.00019999818508
 51
199.99980000000019
  0
ARC
  8
001
  5
3A1
 10
429.19389972541364
 20
821.42992328098512
 30
0.0
 40
2.0
 50
90.0
 51
180.0
  0
ARC
  8
001
 62
               4
  5
3A2
 10
811.47900481605211
 20
806.75222328098516
 30
0.0
 40
1.999999999999998
 50
180.0
 51
199.99939999999992
  0
ARC
  8
001
  5
3A3
 10
407.19399972541362
 20
871.42992328098512
 30
0.0
 40
8.0
 50
90.0
 51
180.0
  0
ARC
  8
001
 62
               4
  5
3A4
 10
822.8794048160521
 20
775.42992328098512
 30
0.0
 40
2.0
 50
199.99920000000009
 51
270.0
  0
ARC
  8
001
  5
3A5
 10
474.19389972541364
 20
871.42992328098512
 30
0.0
 40
8.0
 50
0.0
 51
90.0
  0
ARC
  8
001
 62
               4
  5
3A6
 10
407.19399972541362
 20
922.42992328098512
 30
0.0
 40
8.0000000000000195
 50
180.0
 51
269.99990000000014
  0
ARC
  8
001
  5
3A7
 10
407.19399972541362
 20
813.42992328098512
 30
0.0
 40
8.0
 50
180.0
 51
270.0
  0
ARC
  8
001
 62
               4
  5
3A8
 10
612.19389972541364
 20
922.42992328098512
 30
0.0
 40
8.0
 50
270.00020999999998
 51
0.0
  0
ARC
  8
001
 62
               3
  5
3A9
 10
608.19409972541382
 20
825.42992328098512
 30
0.0
 40
2.0
 50
180.0
 51
270.0
  0
ARC
  8
001
 62
               3
  5
3AA
 10
860.47890481605214
 20
786.04342328098505
 30
0.0
 40
6.6135229999999643
 50
247.78940000000085
 51
292.21059999999915
  0
ARC
  8
001
 62
               3
  5
3AB
 10
589.87559972541374
 20
781.76342328098508
 30
0.0
 40
2.3336119999999787
 50
270.24469999999923
 51
307.84099999999916
  0
ARC
  8
001
 62
               3
  5
3AC
 10
598.51229972541353
 20
781.76342328098508
 30
0.0
 40
2.3336119999999987
 50
232.15900000000084
 51
269.75530000000072
  0
CIRCLE
  8
001
 62
               3
  5
3AD
 10
876.47900481605211
 20
794.42992328098512
 30
0.0
 40
6.0
  0
ARC
  8
001
 62
               3
  5
3AE
 10
112.39409972541364
 20
869.02972328098508
 30
0.0
 40
0.1999999999999886
 50
180.0
 51
270.0
  0
ARC
  8
001
 62
               3
  5
3AF
 10
112.39409972541364
 20
851.82962328098517
 30
0.0
 40
0.1999999999999886
 50
90.0
 51
180.0
  0
ARC
  8
001
 62
               3
  5
3B0
 10
114.19399972541362
 20
851.02972328098508
 30
0.0
 40
1.0
 50
0.0
 51
90.0
  0
ARC
  8
001
 62
               3
  5
3B1
 10
114.19399972541362
 20
869.82962328098517
 30
0.0
 40
1.0
 50
270.0
 51
0.0
  0
ARC
  8
001
 62
               3
  5
3B2
 10
114.19399972541362
 20
1201.2390224470666
 30
0.0
 40
1.0
 50
0.0
 51
90.0
  0
ARC
  8
001
 62
               3
  5
3B3
 10
112.39409972541364
 20
1202.0390224470668
 30
0.0
 40
0.1999999999999886
 50
90.0
 51
180.0
  0
ARC
  8
001
 62
               3
  5
3B4
 10
112.39409972541364
 20
1219.2390224470666
 30
0.0
 40
0.2000000000000455
 50
180.0
 51
270.0
  0
ARC
  8
001
 62
               3
  5
3B5
 10
114.19399972541362
 20
1220.0390224470668
 30
0.0
 40
1.0
 50
270.0
 51
0.0
  0
ARC
  8
001
 62
               3
  5
3B6
 10
664.39009972541373
 20
818.42992328098512
 30
0.0
 40
2.0
 50
209.99989999999869
 51
270.0
  0
ARC
  8
001
 62
               3
  5
3B7
 10
641.30149972541369
 20
899.42992328098512
 30
0.0
 40
3.0000000000000293
 50
221.81050000000059
 51
336.42185000000035
  0
ARC
  8
001
 62
               3
  5
3B8
 10
649.19389972541364
 20
904.42992328098512
 30
0.0
 40
5.0
 50
270.0
 51
0.0
  0
ARC
  8
001
 62
               3
  5
3B9
 10
645.88399972541367
 20
897.42992328098512
 30
0.0
 40
2.0000000000000462
 50
90.0
 51
156.42180000000016
  0
ARC
  8
001
 62
               3
  5
3BA
 10
716.70709972541374
 20
1237.1382224470667
 30
0.0
 40
5.4998749999999799
 50
270.0
 51
36.711129999999642
  0
ARC
  8
001
 62
               3
  5
3BB
 10
716.70699972541354
 20
1184.1404224470668
 30
0.0
 40
5.499874999999987
 50
323.28880000000049
 51
89.999929999999722
  0
ARC
  8
001
 62
               3
  5
3BC
 10
668.19389972541364
 20
1054.4299232809851
 30
0.0
 40
2.0
 50
90.0
 51
180.0
  0
ARC
  8
001
 62
               3
  5
3BD
 10
656.19389972541364
 20
941.41192328098509
 30
0.0
 40
2.0
 50
104.99920000000098
 51
180.0
  0
ARC
  8
001
 62
               3
  5
3BE
 10
731.65659972541368
 20
1213.0392224470668
 30
0.0
 40
1.5
 50
270.0
 51
0.0
  0
ARC
  8
001
 62
               3
  5
3BF
 10
731.65659972541368
 20
1238.2392224470668
 30
0.0
 40
1.5
 50
0.0
 51
90.0
  0
ARC
  8
001
 62
               3
  5
3C0
 10
913.47850481605224
 20
1014.3632232809852
 30
0.0
 40
4.9999999999999147
 50
0.0
 51
29.999980000000232
  0
ARC
  8
001
 62
               3
  5
3C1
 10
891.50150481605215
 20
1052.4298232809851
 30
0.0
 40
5.0000000000001092
 50
30.000279999999769
 51
49.235299999999413
  0
ARC
  8
001
 62
               3
  5
3C2
 10
656.30719972541385
 20
818.42992328098512
 30
0.0
 40
5.0
 50
29.999930000000038
 51
90.0
  0
CIRCLE
  8
001
 62
               3
  5
3C3
 10
834.47920481605229
 20
1047.4299232809851
 30
0.0
 40
4.25
  0
CIRCLE
  8
001
 62
               3
  5
3C4
 10
839.47900481605211
 20
823.42992328098512
 30
0.0
 40
4.25
  0
CIRCLE
  8
001
 62
               3
  5
3C5
 10
883.47890481605214
 20
823.42992328098512
 30
0.0
 40
4.25
  0
ARC
  8
001
 62
               3
  5
3C6
 10
888.6104048160521
 20
1048.4299232809851
 30
0.0
 40
7.9999999999999432
 50
29.999929999999758
 51
90.0
  0
ARC
  8
001
 62
               3
  5
3C7
 10
908.47950481605221
 20
1014.0160232809851
 30
0.0
 40
8.0000000000000426
 50
0.0
 51
29.999929999999758
  0
ARC
  8
001
 62
               3
  5
3C8
 10
714.19389972541364
 20
1042.4299232809851
 30
0.0
 40
1.0
 50
180.0
 51
270.0
  0
ARC
  8
001
 62
               3
  5
3C9
 10
712.34539972541381
 20
1054.9299232809849
 30
0.0
 40
1.5
 50
31.000140000001277
 51
90.0
  0
ARC
  8
001
 62
               3
  5
3CA
 10
830.47900481605211
 20
829.42992328098512
 30
0.0
 40
13.0
 50
179.99990000272982
 51
270.0
  0
ARC
  8
001
 62
               3
  5
3CB
 10
892.47950481605221
 20
829.42992328098512
 30
0.0
 40
13.000000000000012
 50
269.99972999999989
 51
359.99993133621325
  0
ARC
  8
001
  5
3CC
 10
481.19389972541364
 20
824.42992328098512
 30
0.0
 40
1.0
 50
270.00021000000157
 51
0.0
  0
ARC
  8
001
  5
3CD
 10
426.19389972541364
 20
806.42992328098512
 30
0.0
 40
1.0000000000000244
 50
269.99956000000134
 51
0.0001983623228549
  0
CIRCLE
  8
001
  5
3CE
 10
434.19389972541364
 20
872.42992328098512
 30
0.0
 40
3.5
  0
CIRCLE
  8
001
  5
3CF
 10
476.19389972541364
 20
872.42992328098512
 30
0.0
 40
3.5
  0
CIRCLE
  8
001
  5
3D0
 10
462.19389972541364
 20
826.92992328098512
 30
0.0
 40
3.5
  0
CIRCLE
  8
001
  5
3D1
 10
422.19389972541364
 20
826.92992328098512
 30
0.0
 40
3.5
  0
ARC
  8
001
  5
3D2
 10
820.47900481605211
 20
844.42992328098512
 30
0.0
 40
6.9999999999999956
 50
115.37690000000043
 51
212.23742166063778
  0
ARC
  8
001
 62
               4
  5
3D3
 10
896.47950481605221
 20
775.42992328098512
 30
0.0
 40
2.0
 50
270.0
 51
0.0
  0
ARC
  8
001
  5
3D4
 10
408.69399972541362
 20
870.92992328098512
 30
0.0
 40
12.499999999999973
 50
73.739789999999999
 51
106.26020000000007
  0
ARC
  8
001
  5
3D5
 10
415.69389972541364
 20
870.92992328098512
 30
0.0
 40
12.499999999999973
 50
73.739789999999999
 51
106.26020000000007
  0
ARC
  8
001
  5
3D6
 10
467.69389972541364
 20
870.92992328098512
 30
0.0
 40
12.499999999999973
 50
73.739789999999999
 51
106.26020000000007
  0
ARC
  8
001
  5
3D7
 10
460.69389972541364
 20
870.92992328098512
 30
0.0
 40
12.499999999999973
 50
73.739789999999999
 51
106.26020000000007
  0
ARC
  8
001
  5
3D8
 10
419.69089972541371
 20
813.42992328098512
 30
0.0
 40
11.502999999999991
 50
339.34128999999984
 51
20.658710000000127
  0
ARC
  8
001
  5
3D9
 10
438.69699972541366
 20
813.42992328098512
 30
0.0
 40
11.503
 50
159.34130000000013
 51
200.65869999999987
  0
ARC
  8
001
  5
3DA
 10
431.11999972541366
 20
819.78182328098512
 30
0.0
 40
3.9260270000000301
 50
179.89350000000169
 51
215.74720000000011
  0
ARC
  8
001
  5
3DB
 10
427.26779972541374
 20
819.78182328098512
 30
0.0
 40
3.9260790000000232
 50
324.25329999999997
 51
0.1118926999999275
  0
ARC
  8
001
  5
3DC
 10
431.11999972541366
 20
807.07802328098512
 30
0.0
 40
3.9260269999999937
 50
144.25279999999989
 51
180.10649999999828
  0
ARC
  8
001
  5
3DD
 10
427.26779972541374
 20
807.07802328098512
 30
0.0
 40
3.9260789999999832
 50
359.88810730000006
 51
35.746700000000047
  0
ARC
  8
001
  5
3DE
 10
814.47900481605211
 20
874.42992328098512
 30
0.0
 40
4.9999999999999982
 50
90.0
 51
179.99990000272982
  0
ARC
  8
001
  5
3DF
 10
819.47900481605211
 20
815.42992328098512
 30
0.0
 40
10.0
 50
180.0
 51
270.0
  0
ARC
  8
001
 62
               4
  5
3E0
 10
811.47900481605211
 20
819.42992328098512
 30
0.0
 40
2.0
 50
90.0
 51
180.0
  0
ARC
  8
001
 62
               3
  5
3E1
 10
913.47850481605224
 20
1014.3632232809852
 30
0.0
 40
4.9999999999999147
 50
0.0
 51
29.999980000000232
  0
ARC
  8
001
 62
               4
  5
3E2
 10
811.47900481605211
 20
819.42992328098512
 30
0.0
 40
4.0
 50
90.0
 51
180.0
  0
ARC
  8
001
 62
               3
  5
3E3
 10
913.47850481605224
 20
986.4961232809851
 30
0.0
 40
5.0
 50
330.00001999999978
 51
0.0
  0
ARC
  8
001
 62
               3
  5
3E4
 10
809.47900481605211
 20
986.49652328098512
 30
0.0
 40
5.000000000000016
 50
180.0
 51
209.99999999999986
  0
ARC
  8
001
 62
               3
  5
3E5
 10
809.47900481605211
 20
1014.3632232809852
 30
0.0
 40
5.0
 50
149.99970000000005
 51
180.0
  0
ARC
  8
001
  5
3E6
 10
821.47900481605211
 20
863.42992328098512
 30
0.0
 40
5.0999999999999801
 50
141.65730000000011
 51
218.34269999999989
  0
ARC
  8
001
  5
3E7
 10
815.12710481605222
 20
883.35592328098517
 30
0.0
 40
3.9260269999999795
 50
269.8934699999993
 51
305.74724000000026
  0
ARC
  8
001
  5
3E8
 10
815.12710481605222
 20
879.5038232809851
 30
0.0
 40
3.9260790000000148
 50
54.253299999999271
 51
90.111889999999278
  0
ARC
  8
001
 62
               3
  5
3E9
 10
565.19389972541364
 20
1062.4299232809849
 30
0.0
 40
1.0
 50
180.0
 51
270.0
  0
ARC
  8
001
 62
               3
  5
3EA
 10
913.47950481605221
 20
914.01942328098517
 30
0.0
 40
8.0
 50
159.99999999999991
 51
180.0
  0
ARC
  8
001
 62
               3
  5
3EB
 10
908.47950481605221
 20
947.0627232809851
 30
0.0
 40
8.0
 50
339.9999499999999
 51
0.0
  0
CIRCLE
  8
001
 62
               3
  5
3EC
 10
888.47920481605229
 20
1047.4299232809851
 30
0.0
 40
4.25
  0
ARC
  8
001
  6
PHANTOM
 62
               3
  5
3ED
 10
112.19399972541362
 20
952.67992328098512
 30
0.0
 40
3.0
 50
0.0
 51
90.0
  0
ARC
  8
001
  6
PHANTOM
 62
               3
  5
3EE
 10
112.19399972541362
 20
968.17992328098512
 30
0.0
 40
3.0
 50
270.0
 51
0.0
  0
ARC
  8
001
  6
PHANTOM
 62
               3
  5
3EF
 10
112.19389972541364
 20
1068.1799232809849
 30
0.0
 40
3.0
 50
270.0
 51
0.0
  0
ARC
  8
001
  6
PHANTOM
 62
               3
  5
3F0
 10
112.19389972541364
 20
1052.6799232809851
 30
0.0
 40
2.9999999999999432
 50
0.0
 51
90.0
  0
ARC
  8
001
 62
               3
  5
3F1
 10
834.34810481605223
 20
1048.4299232809851
 30
0.0
 40
7.9999999999999742
 50
90.000440000000324
 51
150.0000999999998
  0
ARC
  8
001
 62
               3
  5
3F2
 10
814.47900481605211
 20
1014.0161232809851
 30
0.0
 40
8.0000000000000195
 50
149.99999999999989
 51
179.99990000272982
  0
ARC
  8
001
 62
               3
  5
3F3
 10
809.47900481605211
 20
914.01952328098514
 30
0.0
 40
8.0000000000000213
 50
0.0
 51
20.000049999999817
  0
ARC
  8
001
 62
               3
  5
3F4
 10
814.47920481605229
 20
947.0627232809851
 30
0.0
 40
8.0000000000000089
 50
180.0
 51
200.00009999999997
  0
ARC
  8
001
 62
               3
  5
3F5
 10
721.19389972541364
 20
831.34202328098513
 30
0.0
 40
1.9999999999999609
 50
324.99996000000027
 51
0.00043869013528
  0
ARC
  8
001
 62
               3
  5
3F6
 10
721.19389972541364
 20
1039.2325232809851
 30
0.0
 40
2.0000000000000488
 50
0.0
 51
31.000490000000074
  0
ARC
  8
001
 62
               3
  5
3F7
 10
712.41319972541362
 20
817.92992328098512
 30
0.0
 40
1.5000000000000113
 50
270.0
 51
324.99996000000067
  0
ARC
  8
001
 62
               3
  5
3F8
 10
668.19389972541364
 20
1157.6393224470667
 30
0.0
 40
2.0
 50
180.0
 51
270.0
  0
ARC
  8
001
 62
               3
  5
3F9
 10
668.19389972541364
 20
1263.6393224470667
 30
0.0
 40
2.0
 50
90.0
 51
180.0
  0
ARC
  8
001
 62
               3
  5
3FA
 10
661.69959972541358
 20
1263.6393224470667
 30
0.0
 40
1.9999999999999671
 50
89.999940000000478
 51
149.99999999999946
  0
ARC
  8
001
 62
               3
  5
3FB
 10
831.45700481605218
 20
1052.4299232809851
 30
0.0
 40
4.9999999999999574
 50
130.76469999999961
 51
149.99970000000005
  0
ARC
  8
001
 62
               3
  5
3FC
 10
868.97900481605211
 20
828.42992328098512
 30
0.0
 40
13.999999999999948
 50
238.99810000000002
 51
301.00308999999976
  0
ARC
  8
001
 62
               3
  5
3FD
 10
661.69939972541363
 20
1157.6393224470667
 30
0.0
 40
2.0
 50
209.99990000000011
 51
270.0
  0
ARC
  8
001
  5
3FE
 10
401.19398972541376
 20
1160.6391216578018
 30
0.0
 40
2.0
 50
179.99959999998515
 51
270.0
  0
ARC
  8
001
 62
               3
  5
3FF
 10
397.19399972541362
 20
715.42992328098512
 30
0.0
 40
2.000000000000008
 50
0.0
 51
89.999130000000349
  0
ARC
  8
001
 62
               3
  5
400
 10
401.19399972541362
 20
715.42992328098512
 30
0.0
 40
2.0
 50
180.0
 51
270.0
  0
ARC
  8
001
 62
               3
  5
401
 10
396.22829972541365
 20
641.42992328098512
 30
0.0
 40
1.0
 50
2.0002879999996002
 51
90.0
  0
ARC
  8
001
 62
               3
  5
402
 10
401.80219972541374
 20
596.42982328098515
 30
0.0
 40
3.0
 50
181.99999999999994
 51
270.0
  0
ARC
  8
001
 62
               3
  5
403
 10
406.29209972541366
 20
596.42992328098512
 30
0.0
 40
3.0000000000000209
 50
270.0
 51
358.99979400000007
  0
ARC
  8
001
 62
               3
  5
404
 10
427.23869972541365
 20
621.42992328098512
 30
0.0
 40
1.999999999999976
 50
270.00042999999931
 51
358.00036599999993
  0
ARC
  8
001
 62
               3
  5
405
 10
444.49359972541367
 20
628.42992328098512
 30
0.0
 40
14.999999999999988
 50
90.000059999999962
 51
130.82839999999999
  0
ARC
  8
001
 62
               3
  5
406
 10
426.48259972541371
 20
628.42992328098512
 30
0.0
 40
2.9999999999999969
 50
270.00028999999989
 51
294.38602999999995
  0
ARC
  8
001
 62
               3
  5
407
 10
411.65939972541366
 20
617.42992328098512
 30
0.0
 40
2.0000000000000262
 50
90.0
 51
179.00000000000011
  0
ARC
  8
001
 62
               4
  5
408
 10
407.19399972541362
 20
742.42992328098512
 30
0.0
 40
7.9999999999999911
 50
180.0
 51
269.99990000000014
  0
CIRCLE
  8
001
 62
               2
  5
409
 10
434.19389972541364
 20
692.42992328098512
 30
0.0
 40
3.5
  0
CIRCLE
  8
001
 62
               2
  5
40A
 10
422.19389972541364
 20
646.92992328098512
 30
0.0
 40
3.5
  0
ARC
  8
001
 62
               2
  5
40B
 10
404.19399972541362
 20
692.42992328098512
 30
0.0
 40
5.0
 50
90.0
 51
180.0
  0
ARC
  8
001
 62
               2
  5
40C
 10
404.19399972541362
 20
648.42992328098512
 30
0.0
 40
5.0
 50
180.0
 51
270.0
  0
ARC
  8
001
 62
               2
  5
40D
 10
444.19399972541373
 20
648.42992328098512
 30
0.0
 40
5.0
 50
270.0
 51
0.0
  0
ARC
  8
001
 62
               2
  5
40E
 10
444.19399972541373
 20
692.42992328098512
 30
0.0
 40
5.0
 50
0.0
 51
90.0
  0
CIRCLE
  8
001
 62
               2
  5
40F
 10
422.19389972541364
 20
646.92992328098512
 30
0.0
 40
3.5
  0
ARC
  8
001
 62
               2
  5
410
 10
422.19389972541364
 20
646.92992328098512
 30
0.0
 40
4.1999999999999815
 50
236.44289999999992
 51
303.5575999999997
  0
ARC
  8
001
 62
               3
  5
411
 10
444.49359972541367
 20
628.42992328098512
 30
0.0
 40
15.000000000000012
 50
130.82910000000012
 51
177.99919999999989
  0
ARC
  8
001
 62
               3
  5
412
 10
426.48259972541371
 20
628.42992328098512
 30
0.0
 40
3.0000000000000262
 50
294.3873099999995
 51
357.99958800000013
  0
ARC
  8
001
  6
PHANTOM
  5
413
 10
752.69389972541364
 20
807.02992328098514
 30
0.0
 40
1.5
 50
0.0
 51
90.0
  0
ARC
  8
001
  6
PHANTOM
  5
414
 10
752.69389972541364
 20
781.8299232809851
 30
0.0
 40
1.5
 50
270.0
 51
0.0
  0
ARC
  8
001
  6
PHANTOM
  5
415
 10
752.69389972541364
 20
1238.2392474947796
 30
0.0
 40
1.5
 50
0.0
 51
90.0
  0
ARC
  8
001
  6
PHANTOM
  5
416
 10
752.69389972541364
 20
1213.0392474947798
 30
0.0
 40
1.5
 50
270.0
 51
0.0
  0
ARC
  8
001
 62
               3
  5
417
 10
408.69327245268641
 20
1181.1393224470667
 30
0.0
 40
32.5
 50
255.74996730219638
 51
284.25003269780359
  0
ARC
  8
001
 62
               3
  5
418
 10
875.97950481605221
 20
840.43165632987404
 30
0.0
 40
32.5
 50
345.74996730219641
 51
14.250032697803574
  0
ARC
  8
001
 62
               3
  5
419
 10
846.97900481605211
 20
838.4300232809851
 30
0.0
 40
32.5
 50
165.74996730219641
 51
194.25003269780359
  0
ARC
  8
001
 62
               3
  5
41A
 10
831.97900481605211
 20
826.92992328098512
 30
0.0
 40
32.5
 50
169.27797924925656
 51
194.25003269780359
  0
ARC
  8
001
  5
41B
 10
814.47900481605211
 20
828.42995328098516
 30
0.0
 40
5.0
 50
240.00000000000009
 51
270.0
  0
ARC
  8
001
  5
41C
 10
480.19403972541363
 20
1150.6393224470667
 30
0.0
 40
2.0000000000000004
 50
270.0
 51
359.32206323969007
  0
ARC
  8
001
  5
41D
 10
453.02246685015984
 20
1150.6393224470667
 30
0.0
 40
2.0
 50
225.0
 51
270.0
  0
ARC
  8
001
  5
41E
 10
807.47900481605211
 20
864.58462381936442
 30
0.0
 40
2.0
 50
299.99999999999972
 51
0.0
  0
ARC
  8
001
  5
41F
 10
807.47900481605211
 20
853.03761843557186
 30
0.0
 40
8.0
 50
119.99999999999994
 51
180.0
  0
ARC
  8
001
  5
420
 10
807.47900481605211
 20
835.93550678045028
 30
0.0
 40
8.000000000000016
 50
180.0
 51
240.00000000000009
  0
CIRCLE
  8
001
  5
421
 10
809.47900481605211
 20
834.92992328098512
 30
0.0
 40
4.8640000000000327
  0
CIRCLE
  8
001
  5
422
 10
808.47900481605211
 20
853.42992328098512
 30
0.0
 40
4.8640000000000327
  0
CIRCLE
  8
001
  5
423
 10
808.47900481605211
 20
853.42992328098512
 30
0.0
 40
4.27800000000002
  0
CIRCLE
  8
001
  5
424
 10
809.47900481605211
 20
834.92992328098512
 30
0.0
 40
4.27800000000002
  0
TEXT
  8
001
 62
               2
  5
425
 10
443.69399972541373
 20
683.42992328098512
 30
0.0
 40
5.0
  1
F
 41
0.6719999790191651
  0
TEXT
  8
001
 62
               2
  5
426
 10
443.69399972541373
 20
662.42992328098512
 30
0.0
 40
5.0
  1
R
 41
0.6719999790191651
  0
TEXT
  8
001
  5
427
 10
640.89983413551749
 20
783.16203188106385
 30
0.0
 40
10.0
  1
RB-2430
 41
0.5121951469363487
  0
TEXT
  8
001
  5
428
 10
38.978980403682542
 20
891.68265875732664
 30
0.0
 40
10.0
  1
ES3P-13**LL(A)
 41
0.5384614970414232
  0
TEXT
  8
001
  5
429
 10
38.135382975304196
 20
1078.4629526093131
 30
0.0
 40
10.0
  1
ES3P-30**LL(A)
 41
0.531645556160872
  0
TEXT
  8
001
  5
42A
 10
38.482399791398564
 20
981.74642869369336
 30
0.0
 40
10.0
  1
ES3P-60**LL(A)
 41
0.531645556160872
  0
ARC
  8
001
 62
               3
  5
42B
 10
87.193999725154868
 20
663.01896982730909
 30
0.0
 40
1.0
 50
270.0
 51
0.0
  0
ARC
  8
001
 62
               3
  5
42C
 10
87.193999725154868
 20
632.01896982730909
 30
0.0
 40
1.0
 50
0.0000000000000127
 51
90.000000000000014
  0
LINE
  8
001
 62
               3
  5
42D
 10
73.193999725154853
 20
659.51896982730909
 30
0.0
 11
87.193999725154853
 21
659.51896982730909
 31
0.0
  0
LINE
  8
001
 62
               3
  5
42E
 10
73.193999725154853
 20
660.01896982730909
 30
0.0
 11
73.193999725154853
 21
659.51896982730909
 31
0.0
  0
LINE
  8
001
 62
               3
  5
42F
 10
87.193999725154868
 20
659.51896982730909
 30
0.0
 11
87.193999725154868
 21
662.01896982730909
 31
0.0
  0
LINE
  8
001
 62
               3
  5
430
 10
73.193999725154853
 20
635.51896982730909
 30
0.0
 11
87.193999725154853
 21
635.51896982730909
 31
0.0
  0
LINE
  8
001
 62
               3
  5
431
 10
73.193999725154853
 20
635.01896982730909
 30
0.0
 11
73.193999725154853
 21
635.51896982730909
 31
0.0
  0
LINE
  8
001
 62
               3
  5
432
 10
87.193999725154868
 20
633.01896982730909
 30
0.0
 11
87.193999725154868
 21
635.51896982730909
 31
0.0
  0
LINE
  8
001
 62
               3
  5
433
 10
68.693999725154853
 20
635.01896982730909
 30
0.0
 11
68.693999725154853
 21
660.01896982730909
 31
0.0
  0
LINE
  8
001
 62
               3
  5
434
 10
102.33768377180377
 20
671.01896982730909
 30
0.0
 11
88.193999725154811
 21
671.01896982730909
 31
0.0
  0
LINE
  8
001
 62
               3
  5
435
 10
94.05031567850591
 20
624.01896982730909
 30
0.0
 11
88.193999725154868
 21
624.01896982730909
 31
0.0
  0
LINE
  8
001
 62
               3
  5
436
 10
43.693999725154853
 20
633.51906982730907
 30
0.0
 11
43.693999725154853
 21
661.51906982730907
 31
0.0
  0
LINE
  8
001
 62
               3
  5
437
 10
62.693999725154853
 20
631.51906982730907
 30
0.0
 11
62.693999725154853
 21
663.51906982730907
 31
0.0
  0
LINE
  8
001
 62
               3
  5
438
 10
45.42605053272392
 20
664.51906982730907
 30
0.0
 11
61.693999725154853
 21
664.51906982730907
 31
0.0
  0
LINE
  8
001
 62
               3
  5
439
 10
45.42605053272392
 20
630.51906982730907
 30
0.0
 11
61.693999725154853
 21
630.51906982730907
 31
0.0
  0
LINE
  8
001
 62
               3
  5
43A
 10
45.42605053272392
 20
656.50945088407593
 30
0.0
 11
55.693999725154853
 21
656.50945088407593
 31
0.0
  0
LINE
  8
001
 62
               3
  5
43B
 10
45.42605053272392
 20
655.51906982730907
 30
0.0
 11
55.693999725154853
 21
655.51906982730907
 31
0.0
  0
LINE
  8
001
 62
               3
  5
43C
 10
45.42605053272392
 20
639.51906982730907
 30
0.0
 11
55.693999725154853
 21
639.51906982730907
 31
0.0
  0
LINE
  8
001
 62
               3
  5
43D
 10
45.42605053272392
 20
638.52868877054243
 30
0.0
 11
55.693999725154853
 21
638.52868877054243
 31
0.0
  0
LINE
  8
001
 62
               3
  5
43E
 10
43.693999725154853
 20
661.51906982730907
 30
0.0
 11
45.42605053272392
 21
664.51906982730907
 31
0.0
  0
LINE
  8
001
 62
               3
  5
43F
 10
43.693999725154853
 20
633.51906982730907
 30
0.0
 11
45.42605053272392
 21
630.51906982730907
 31
0.0
  0
LINE
  8
001
 62
               3
  5
440
 10
55.693999725154853
 20
630.51906982730907
 30
0.0
 11
55.693999725154853
 21
638.52868877054243
 31
0.0
  0
LINE
  8
001
 62
               3
  5
441
 10
55.693999725154853
 20
639.51906982730907
 30
0.0
 11
55.693999725154853
 21
655.51906982730907
 31
0.0
  0
LINE
  8
001
 62
               3
  5
442
 10
55.693999725154853
 20
656.50945088407593
 30
0.0
 11
55.693999725154853
 21
664.51906982730907
 31
0.0
  0
LINE
  8
001
 62
               3
  5
443
 10
45.42605053272392
 20
656.50945088407593
 30
0.0
 11
45.42605053272392
 21
655.51906982730907
 31
0.0
  0
LINE
  8
001
 62
               3
  5
444
 10
45.42605053272392
 20
639.51906982730907
 30
0.0
 11
45.426050532723465
 21
638.52868877054243
 31
0.0
  0
LINE
  8
001
 62
               3
  5
445
 10
61.693999725154853
 20
664.51906982730907
 30
0.0
 11
62.693999725154853
 21
663.51906982730907
 31
0.0
  0
LINE
  8
001
 62
               3
  5
446
 10
62.693999725154853
 20
631.51906982730907
 30
0.0
 11
61.693999725154853
 21
630.51906982730907
 31
0.0
  0
LINE
  8
001
 62
               3
  5
447
 10
61.693999725154853
 20
664.51906982730907
 30
0.0
 11
61.693999725154853
 21
630.51906982730907
 31
0.0
  0
LINE
  8
001
 62
               3
  5
448
 10
55.693999725154853
 20
664.51906982730907
 30
0.0
 11
45.42605053272392
 21
656.50945088407593
 31
0.0
  0
LINE
  8
001
 62
               3
  5
449
 10
45.42605053272392
 20
664.51906982730907
 30
0.0
 11
55.693999725154853
 21
656.50945088407593
 31
0.0
  0
LINE
  8
001
 62
               3
  5
44A
 10
55.693999725154853
 20
655.51906982730907
 30
0.0
 11
45.42605053272392
 21
639.51906982730907
 31
0.0
  0
LINE
  8
001
 62
               3
  5
44B
 10
45.42605053272392
 20
655.51906982730907
 30
0.0
 11
55.693999725154853
 21
639.51906982730907
 31
0.0
  0
LINE
  8
001
 62
               3
  5
44C
 10
55.693999725154853
 20
638.5286887705422
 30
0.0
 11
45.42605053272392
 21
630.51906982730907
 31
0.0
  0
LINE
  8
001
 62
               3
  5
44D
 10
45.426050532723465
 20
638.52868877054243
 30
0.0
 11
55.693999725154853
 21
630.51906982730907
 31
0.0
  0
ARC
  8
001
 62
               3
  5
44E
 10
63.035233743006856
 20
647.51906982730907
 30
0.0
 40
19.341234017851722
 50
155.56730232054483
 51
204.43269767945517
  0
ARC
  8
001
 62
               3
  5
44F
 10
51.804697700532515
 20
661.51906982730907
 30
0.0
 40
8.1106979753779402
 50
180.0
 51
218.14514360912378
  0
ARC
  8
001
 62
               3
  5
450
 10
51.804697700532515
 20
633.51906982730907
 30
0.0
 40
8.1106979753778887
 50
141.85485639087622
 51
180.0
  0
ARC
  8
001
 62
               3
  5
451
 10
40.693999725155308
 20
647.51906982730907
 30
0.0
 40
16.999999999999545
 50
331.92751306414669
 51
28.072486935853323
  0
ARC
  8
001
 62
               3
  5
452
 10
52.68438078192149
 20
660.51426035569239
 30
0.0
 40
5.0096212518930203
 50
306.92490429281207
 51
53.075095707186641
  0
ARC
  8
001
 62
               3
  5
453
 10
52.68438078192149
 20
634.52387929892575
 30
0.0
 40
5.0096212518930772
 50
306.92490429281287
 51
53.075095707187913
  0
LINE
  8
001
 62
               3
  5
454
 10
73.193999725154853
 20
660.01896982730909
 30
0.0
 11
62.693999725154853
 21
660.01896982730909
 31
0.0
  0
LINE
  8
001
 62
               3
  5
455
 10
62.693999725154853
 20
659.26896982730909
 30
0.0
 11
68.693999725154853
 21
659.26896982730909
 31
0.0
  0
LINE
  8
001
 62
               3
  5
456
 10
62.693999725154853
 20
635.76896982730909
 30
0.0
 11
68.693999725154853
 21
635.76896982730909
 31
0.0
  0
LINE
  8
001
 62
               3
  5
457
 10
73.193999725154853
 20
635.01896982730909
 30
0.0
 11
62.693999725154853
 21
635.01896982730909
 31
0.0
  0
LINE
  8
001
  6
PHANTOM
 62
               3
  5
458
 10
94.05031567850591
 20
624.01896982730909
 30
0.0
 11
102.33768377180377
 21
671.01896982730909
 31
0.0
  0
LINE
  8
001
  6
CENTER
  5
459
 10
99.741846968341974
 20
647.51896982730909
 30
0.0
 11
40.417660776009029
 21
647.51896982730909
 31
0.0
  0
LINE
  8
001
 62
               3
  5
45A
 10
88.193999725154868
 20
671.01896982730909
 30
0.0
 11
88.193999725154868
 21
624.01896982730909
 31
0.0
  0
LINE
  8
001
  6
PHANTOM
 62
               3
  5
45B
 10
190.78805235426427
 20
337.73316868119969
 30
0.0
 11
147.79199972541358
 21
337.73316868119969
 31
0.0
  0
LINE
  8
001
  6
PHANTOM
 62
               3
  5
45C
 10
142.19399972541362
 20
339.23316868119969
 30
0.0
 11
147.79199972541358
 21
337.73316868119969
 31
0.0
  0
LINE
  8
001
  6
PHANTOM
 62
               3
  5
45D
 10
142.19399972541362
 20
410.23316868119969
 30
0.0
 11
142.19399972541362
 21
339.23316868119969
 31
0.0
  0
LINE
  8
001
  6
PHANTOM
 62
               3
  5
45E
 10
142.19399972541362
 20
410.23316868119969
 30
0.0
 11
147.79199972541358
 21
411.73306868119971
 31
0.0
  0
LINE
  8
001
  6
PHANTOM
 62
               3
  5
45F
 10
191.74038251110437
 20
411.73311795013478
 30
0.0
 11
147.7919997254136
 21
411.73306868119971
 31
0.0
  0
LINE
  8
001
 62
               3
  5
460
 10
142.19399972541362
 20
349.73316868119991
 30
0.0
 11
125.69399209601909
 21
349.73316868119991
 31
0.0
  0
LINE
  8
001
 62
               3
  5
461
 10
104.19399972541362
 20
351.23326868119966
 30
0.0
 11
88.193999725413619
 21
351.23326868119966
 31
0.0
  0
LINE
  8
001
 62
               3
  5
462
 10
104.19399972541362
 20
398.23326868119966
 30
0.0
 11
88.193999725413619
 21
398.23326868119966
 31
0.0
  0
LINE
  8
001
 62
               3
  5
463
 10
105.69399972541362
 20
398.23326868119966
 30
0.0
 11
104.69399972541362
 21
398.23326868119966
 31
0.0
  0
LINE
  8
001
 62
               3
  5
464
 10
125.69399972541362
 20
404.73326868119966
 30
0.0
 11
105.69399972541362
 21
404.73326868119966
 31
0.0
  0
LINE
  8
001
 62
               3
  5
465
 10
105.69399972541362
 20
351.23326868119966
 30
0.0
 11
104.69399972541362
 21
351.23326868119966
 31
0.0
  0
LINE
  8
001
 62
               3
  5
466
 10
125.69399972541362
 20
344.73326868119966
 30
0.0
 11
105.69399972541362
 21
344.73326868119966
 31
0.0
  0
LINE
  8
001
 62
               3
  5
467
 10
88.193999725413619
 20
398.23326868119966
 30
0.0
 11
88.193999725413619
 21
351.23326868119966
 31
0.0
  0
LINE
  8
001
 62
               3
  5
468
 10
104.19399972541362
 20
398.23326868119966
 30
0.0
 11
104.19399972541362
 21
351.23326868119966
 31
0.0
  0
LINE
  8
001
 62
               3
  5
469
 10
104.69399972541362
 20
351.23326868119966
 30
0.0
 11
104.69399972541362
 21
398.23326868119966
 31
0.0
  0
LINE
  8
001
 62
               3
  5
46A
 10
104.19399972541362
 20
353.73326868119966
 30
0.0
 11
104.69399972541362
 21
353.73326868119966
 31
0.0
  0
LINE
  8
001
 62
               3
  5
46B
 10
104.19399972541362
 20
395.73326868119966
 30
0.0
 11
104.69399972541362
 21
395.73326868119966
 31
0.0
  0
LINE
  8
001
 62
               3
  5
46C
 10
105.69399972541362
 20
344.73326868119966
 30
0.0
 11
105.69399972541362
 21
404.73326868119966
 31
0.0
  0
LINE
  8
001
 62
               3
  5
46D
 10
125.69399972541362
 20
344.73326868119966
 30
0.0
 11
125.69399972541362
 21
404.73326868119966
 31
0.0
  0
LINE
  8
001
 62
               3
  5
46E
 10
142.19399972541362
 20
399.73306868119971
 30
0.0
 11
125.69399972541362
 21
399.73306868119971
 31
0.0
  0
LINE
  8
001
  6
DASHED
 62
               3
  5
46F
 10
113.19399972541373
 20
344.73326868119977
 30
0.0
 11
113.19399972541366
 21
349.73326868119977
 31
0.0
  0
LINE
  8
001
  6
DASHED
 62
               3
  5
470
 10
112.75899972541356
 20
344.73326868119977
 30
0.0
 11
112.75899972541356
 21
349.73326868119977
 31
0.0
  0
LINE
  8
001
  6
DASHED
 62
               3
  5
471
 10
108.62899972541368
 20
349.73326868119977
 30
0.0
 11
108.62899972541368
 21
344.73326868119977
 31
0.0
  0
LINE
  8
001
  6
DASHED
 62
               3
  5
472
 10
108.19399972541362
 20
349.73326868119977
 30
0.0
 11
108.19399972541362
 21
344.73326868119966
 31
0.0
  0
LINE
  8
001
  6
CENTER
  5
473
 10
110.69399972541362
 20
350.27151028069932
 30
0.0
 11
110.69399972541362
 21
343.57404091305801
 31
0.0
  0
POLYLINE
  8
001
  6
PHANTOM
 62
               3
  5
474
 66
               1
 10
0.0
 20
0.0
 30
0.0
  0
VERTEX
  8
001
  6
PHANTOM
 62
               3
  5
475
 10
191.74039105848385
 20
411.73306974738955
 30
0.0
  0
VERTEX
  8
001
  6
PHANTOM
 62
               3
  5
476
 10
192.26497960079502
 20
408.79520295112673
 30
0.0
  0
VERTEX
  8
001
  6
PHANTOM
 62
               3
  5
477
 10
192.74174914927096
 20
405.85739257863162
 30
0.0
  0
VERTEX
  8
001
  6
PHANTOM
 62
               3
  5
478
 10
193.12288149464618
 20
402.91969505274608
 30
0.0
  0
VERTEX
  8
001
  6
PHANTOM
 62
               3
  5
479
 10
193.36055842765523
 20
399.98216679631207
 30
0.0
  0
VERTEX
  8
001
  6
PHANTOM
 62
               3
  5
47A
 10
193.40696173903268
 20
397.04486423217156
 30
0.0
  0
VERTEX
  8
001
  6
PHANTOM
 62
               3
  5
47B
 10
193.17928720878959
 20
393.52392595722853
 30
0.0
  0
VERTEX
  8
001
  6
PHANTOM
 62
               3
  5
47C
 10
192.74150455617448
 20
390.00251907410109
 30
0.0
  0
VERTEX
  8
001
  6
PHANTOM
 62
               3
  5
47D
 10
192.22709303160684
 20
386.47976956051014
 30
0.0
  0
VERTEX
  8
001
  6
PHANTOM
 62
               3
  5
47E
 10
191.76953188550621
 20
382.95480339417645
 30
0.0
  0
VERTEX
  8
001
  6
PHANTOM
 62
               3
  5
47F
 10
191.50230036829205
 20
379.42674655282087
 30
0.0
  0
VERTEX
  8
001
  6
PHANTOM
 62
               3
  5
480
 10
191.53648983574217
 20
375.52535791232151
 30
0.0
  0
VERTEX
  8
001
  6
PHANTOM
 62
               3
  5
481
 10
191.83111522366292
 20
371.62075858469916
 30
0.0
  0
VERTEX
  8
001
  6
PHANTOM
 62
               3
  5
482
 10
192.25149548066415
 20
367.71457567231738
 30
0.0
  0
VERTEX
  8
001
  6
PHANTOM
 62
               3
  5
483
 10
192.66294955535571
 20
363.80843627753967
 30
0.0
  0
VERTEX
  8
001
  6
PHANTOM
 62
               3
  5
484
 10
192.93079639634752
 20
359.90396750272964
 30
0.0
  0
VERTEX
  8
001
  6
PHANTOM
 62
               3
  5
485
 10
192.93463630745455
 20
355.46468392253729
 30
0.0
  0
VERTEX
  8
001
  6
PHANTOM
 62
               3
  5
486
 10
192.65021707221248
 20
351.0288162196025
 30
0.0
  0
VERTEX
  8
001
  6
PHANTOM
 62
               3
  5
487
 10
192.14960347720856
 20
346.59551042461089
 30
0.0
  0
VERTEX
  8
001
  6
PHANTOM
 62
               3
  5
488
 10
191.50486030903008
 20
342.16391256824807
 30
0.0
  0
VERTEX
  8
001
  6
PHANTOM
 62
               3
  5
489
 10
190.78805235426429
 20
337.73316868119969
 30
0.0
  0
SEQEND
  8
001
  5
48A
  0
LINE
  8
001
  6
PHANTOM
 62
               3
  5
48B
 10
190.78805235426427
 20
437.73316868119969
 30
0.0
 11
147.79199972541358
 21
437.73316868119969
 31
0.0
  0
LINE
  8
001
  6
PHANTOM
 62
               3
  5
48C
 10
142.19399972541362
 20
439.23316868119969
 30
0.0
 11
147.79199972541358
 21
437.73316868119969
 31
0.0
  0
LINE
  8
001
  6
PHANTOM
 62
               3
  5
48D
 10
142.19399972541362
 20
510.23316868119969
 30
0.0
 11
142.19399972541362
 21
439.23316868119969
 31
0.0
  0
LINE
  8
001
  6
PHANTOM
 62
               3
  5
48E
 10
142.19399972541362
 20
510.23316868119969
 30
0.0
 11
147.79199972541358
 21
511.73306868119971
 31
0.0
  0
LINE
  8
001
  6
PHANTOM
 62
               3
  5
48F
 10
191.74038251110437
 20
511.73311795013478
 30
0.0
 11
147.7919997254136
 21
511.73306868119971
 31
0.0
  0
LINE
  8
001
 62
               3
  5
490
 10
142.19399972541362
 20
449.73316868119991
 30
0.0
 11
125.69399209601909
 21
449.73316868119991
 31
0.0
  0
LINE
  8
001
 62
               3
  5
491
 10
104.19399972541362
 20
451.23326868119966
 30
0.0
 11
88.193999725413619
 21
451.23326868119966
 31
0.0
  0
LINE
  8
001
 62
               3
  5
492
 10
104.19399972541362
 20
498.23326868119966
 30
0.0
 11
88.193999725413619
 21
498.23326868119966
 31
0.0
  0
LINE
  8
001
 62
               3
  5
493
 10
105.69399972541362
 20
498.23326868119966
 30
0.0
 11
104.69399972541362
 21
498.23326868119966
 31
0.0
  0
LINE
  8
001
 62
               3
  5
494
 10
125.69399972541362
 20
504.73326868119966
 30
0.0
 11
105.69399972541362
 21
504.73326868119966
 31
0.0
  0
LINE
  8
001
 62
               3
  5
495
 10
105.69399972541362
 20
451.23326868119966
 30
0.0
 11
104.69399972541362
 21
451.23326868119966
 31
0.0
  0
LINE
  8
001
 62
               3
  5
496
 10
125.69399972541362
 20
444.73326868119966
 30
0.0
 11
105.69399972541362
 21
444.73326868119966
 31
0.0
  0
LINE
  8
001
 62
               3
  5
497
 10
88.193999725413619
 20
498.23326868119966
 30
0.0
 11
88.193999725413619
 21
451.23326868119966
 31
0.0
  0
LINE
  8
001
 62
               3
  5
498
 10
104.19399972541362
 20
498.23326868119966
 30
0.0
 11
104.19399972541362
 21
451.23326868119966
 31
0.0
  0
LINE
  8
001
 62
               3
  5
499
 10
104.69399972541362
 20
451.23326868119966
 30
0.0
 11
104.69399972541362
 21
498.23326868119966
 31
0.0
  0
LINE
  8
001
 62
               3
  5
49A
 10
104.19399972541362
 20
453.73326868119966
 30
0.0
 11
104.69399972541362
 21
453.73326868119966
 31
0.0
  0
LINE
  8
001
 62
               3
  5
49B
 10
104.19399972541362
 20
495.73326868119966
 30
0.0
 11
104.69399972541362
 21
495.73326868119966
 31
0.0
  0
LINE
  8
001
 62
               3
  5
49C
 10
105.69399972541362
 20
444.73326868119966
 30
0.0
 11
105.69399972541362
 21
504.73326868119966
 31
0.0
  0
LINE
  8
001
 62
               3
  5
49D
 10
125.69399972541362
 20
444.73326868119966
 30
0.0
 11
125.69399972541362
 21
504.73326868119966
 31
0.0
  0
LINE
  8
001
 62
               3
  5
49E
 10
142.19399972541362
 20
499.73306868119971
 30
0.0
 11
125.69399972541362
 21
499.73306868119971
 31
0.0
  0
LINE
  8
001
  6
DASHED
 62
               3
  5
49F
 10
113.19399972541373
 20
444.73326868119977
 30
0.0
 11
113.19399972541366
 21
449.73326868119977
 31
0.0
  0
LINE
  8
001
  6
DASHED
 62
               3
  5
4A0
 10
112.75899972541356
 20
444.73326868119977
 30
0.0
 11
112.75899972541356
 21
449.73326868119977
 31
0.0
  0
LINE
  8
001
  6
DASHED
 62
               3
  5
4A1
 10
108.62899972541368
 20
449.73326868119977
 30
0.0
 11
108.62899972541368
 21
444.73326868119977
 31
0.0
  0
LINE
  8
001
  6
DASHED
 62
               3
  5
4A2
 10
108.19399972541362
 20
449.73326868119977
 30
0.0
 11
108.19399972541362
 21
444.73326868119966
 31
0.0
  0
LINE
  8
001
  6
CENTER
  5
4A3
 10
110.69399972541362
 20
450.27151028069932
 30
0.0
 11
110.69399972541362
 21
443.57404091305801
 31
0.0
  0
POLYLINE
  8
001
  6
PHANTOM
 62
               3
  5
4A4
 66
               1
 10
0.0
 20
0.0
 30
0.0
  0
VERTEX
  8
001
  6
PHANTOM
 62
               3
  5
4A5
 10
191.74039105848385
 20
511.73306974738955
 30
0.0
  0
VERTEX
  8
001
  6
PHANTOM
 62
               3
  5
4A6
 10
192.26497960079502
 20
508.79520295112673
 30
0.0
  0
VERTEX
  8
001
  6
PHANTOM
 62
               3
  5
4A7
 10
192.74174914927096
 20
505.85739257863162
 30
0.0
  0
VERTEX
  8
001
  6
PHANTOM
 62
               3
  5
4A8
 10
193.12288149464618
 20
502.91969505274608
 30
0.0
  0
VERTEX
  8
001
  6
PHANTOM
 62
               3
  5
4A9
 10
193.36055842765523
 20
499.98216679631207
 30
0.0
  0
VERTEX
  8
001
  6
PHANTOM
 62
               3
  5
4AA
 10
193.40696173903268
 20
497.04486423217156
 30
0.0
  0
VERTEX
  8
001
  6
PHANTOM
 62
               3
  5
4AB
 10
193.17928720878959
 20
493.52392595722853
 30
0.0
  0
VERTEX
  8
001
  6
PHANTOM
 62
               3
  5
4AC
 10
192.74150455617448
 20
490.00251907410109
 30
0.0
  0
VERTEX
  8
001
  6
PHANTOM
 62
               3
  5
4AD
 10
192.22709303160684
 20
486.47976956051014
 30
0.0
  0
VERTEX
  8
001
  6
PHANTOM
 62
               3
  5
4AE
 10
191.76953188550621
 20
482.95480339417645
 30
0.0
  0
VERTEX
  8
001
  6
PHANTOM
 62
               3
  5
4AF
 10
191.50230036829205
 20
479.42674655282087
 30
0.0
  0
VERTEX
  8
001
  6
PHANTOM
 62
               3
  5
4B0
 10
191.53648983574217
 20
475.52535791232151
 30
0.0
  0
VERTEX
  8
001
  6
PHANTOM
 62
               3
  5
4B1
 10
191.83111522366292
 20
471.62075858469916
 30
0.0
  0
VERTEX
  8
001
  6
PHANTOM
 62
               3
  5
4B2
 10
192.25149548066415
 20
467.71457567231738
 30
0.0
  0
VERTEX
  8
001
  6
PHANTOM
 62
               3
  5
4B3
 10
192.66294955535571
 20
463.80843627753967
 30
0.0
  0
VERTEX
  8
001
  6
PHANTOM
 62
               3
  5
4B4
 10
192.93079639634752
 20
459.90396750272964
 30
0.0
  0
VERTEX
  8
001
  6
PHANTOM
 62
               3
  5
4B5
 10
192.93463630745455
 20
455.46468392253729
 30
0.0
  0
VERTEX
  8
001
  6
PHANTOM
 62
               3
  5
4B6
 10
192.65021707221248
 20
451.0288162196025
 30
0.0
  0
VERTEX
  8
001
  6
PHANTOM
 62
               3
  5
4B7
 10
192.14960347720856
 20
446.59551042461089
 30
0.0
  0
VERTEX
  8
001
  6
PHANTOM
 62
               3
  5
4B8
 10
191.50486030903008
 20
442.16391256824807
 30
0.0
  0
VERTEX
  8
001
  6
PHANTOM
 62
               3
  5
4B9
 10
190.78805235426429
 20
437.73316868119969
 30
0.0
  0
SEQEND
  8
001
  5
4BA
  0
LINE
  8
001
  6
PHANTOM
 62
               3
  5
4BB
 10
190.78805235426427
 20
237.73316868119969
 30
0.0
 11
147.79199972541358
 21
237.73316868119969
 31
0.0
  0
LINE
  8
001
  6
PHANTOM
 62
               3
  5
4BC
 10
142.19399972541362
 20
239.23316868119969
 30
0.0
 11
147.79199972541358
 21
237.73316868119969
 31
0.0
  0
LINE
  8
001
  6
PHANTOM
 62
               3
  5
4BD
 10
142.19399972541362
 20
310.23316868119969
 30
0.0
 11
142.19399972541362
 21
239.23316868119969
 31
0.0
  0
LINE
  8
001
  6
PHANTOM
 62
               3
  5
4BE
 10
142.19399972541362
 20
310.23316868119969
 30
0.0
 11
147.79199972541358
 21
311.73306868119971
 31
0.0
  0
LINE
  8
001
  6
PHANTOM
 62
               3
  5
4BF
 10
191.74038251110437
 20
311.73311795013478
 30
0.0
 11
147.7919997254136
 21
311.73306868119971
 31
0.0
  0
LINE
  8
001
 62
               3
  5
4C0
 10
142.19399972541362
 20
249.73316868119991
 30
0.0
 11
125.69399209601909
 21
249.73316868119991
 31
0.0
  0
LINE
  8
001
 62
               3
  5
4C1
 10
104.19399972541362
 20
251.23326868119966
 30
0.0
 11
88.193999725413619
 21
251.23326868119966
 31
0.0
  0
LINE
  8
001
 62
               3
  5
4C2
 10
104.19399972541362
 20
298.23326868119966
 30
0.0
 11
88.193999725413619
 21
298.23326868119966
 31
0.0
  0
LINE
  8
001
 62
               3
  5
4C3
 10
105.69399972541362
 20
298.23326868119966
 30
0.0
 11
104.69399972541362
 21
298.23326868119966
 31
0.0
  0
LINE
  8
001
 62
               3
  5
4C4
 10
125.69399972541362
 20
304.73326868119966
 30
0.0
 11
105.69399972541362
 21
304.73326868119966
 31
0.0
  0
LINE
  8
001
 62
               3
  5
4C5
 10
105.69399972541362
 20
251.23326868119966
 30
0.0
 11
104.69399972541362
 21
251.23326868119966
 31
0.0
  0
LINE
  8
001
 62
               3
  5
4C6
 10
125.69399972541362
 20
244.73326868119966
 30
0.0
 11
105.69399972541362
 21
244.73326868119966
 31
0.0
  0
LINE
  8
001
 62
               3
  5
4C7
 10
88.193999725413619
 20
298.23326868119966
 30
0.0
 11
88.193999725413619
 21
251.23326868119966
 31
0.0
  0
LINE
  8
001
 62
               3
  5
4C8
 10
104.19399972541362
 20
298.23326868119966
 30
0.0
 11
104.19399972541362
 21
251.23326868119966
 31
0.0
  0
LINE
  8
001
 62
               3
  5
4C9
 10
104.69399972541362
 20
251.23326868119966
 30
0.0
 11
104.69399972541362
 21
298.23326868119966
 31
0.0
  0
LINE
  8
001
 62
               3
  5
4CA
 10
104.19399972541362
 20
253.73326868119966
 30
0.0
 11
104.69399972541362
 21
253.73326868119966
 31
0.0
  0
LINE
  8
001
 62
               3
  5
4CB
 10
104.19399972541362
 20
295.73326868119966
 30
0.0
 11
104.69399972541362
 21
295.73326868119966
 31
0.0
  0
LINE
  8
001
 62
               3
  5
4CC
 10
105.69399972541362
 20
244.73326868119966
 30
0.0
 11
105.69399972541362
 21
304.73326868119966
 31
0.0
  0
LINE
  8
001
 62
               3
  5
4CD
 10
125.69399972541362
 20
244.73326868119966
 30
0.0
 11
125.69399972541362
 21
304.73326868119966
 31
0.0
  0
LINE
  8
001
 62
               3
  5
4CE
 10
142.19399972541362
 20
299.73306868119971
 30
0.0
 11
125.69399972541362
 21
299.73306868119971
 31
0.0
  0
LINE
  8
001
  6
DASHED
 62
               3
  5
4CF
 10
113.19399972541373
 20
244.73326868119977
 30
0.0
 11
113.19399972541366
 21
249.73326868119975
 31
0.0
  0
LINE
  8
001
  6
DASHED
 62
               3
  5
4D0
 10
112.75899972541356
 20
244.73326868119977
 30
0.0
 11
112.75899972541356
 21
249.73326868119977
 31
0.0
  0
LINE
  8
001
  6
DASHED
 62
               3
  5
4D1
 10
108.62899972541368
 20
249.73326868119977
 30
0.0
 11
108.62899972541368
 21
244.73326868119975
 31
0.0
  0
LINE
  8
001
  6
DASHED
 62
               3
  5
4D2
 10
108.19399972541362
 20
249.73326868119977
 30
0.0
 11
108.19399972541362
 21
244.73326868119969
 31
0.0
  0
LINE
  8
001
  6
CENTER
  5
4D3
 10
110.69399972541362
 20
250.27151028069932
 30
0.0
 11
110.69399972541362
 21
243.57404091305801
 31
0.0
  0
POLYLINE
  8
001
  6
PHANTOM
 62
               3
  5
4D4
 66
               1
 10
0.0
 20
0.0
 30
0.0
  0
VERTEX
  8
001
  6
PHANTOM
 62
               3
  5
4D5
 10
191.74039105848385
 20
311.73306974738955
 30
0.0
  0
VERTEX
  8
001
  6
PHANTOM
 62
               3
  5
4D6
 10
192.26497960079502
 20
308.79520295112673
 30
0.0
  0
VERTEX
  8
001
  6
PHANTOM
 62
               3
  5
4D7
 10
192.74174914927096
 20
305.85739257863162
 30
0.0
  0
VERTEX
  8
001
  6
PHANTOM
 62
               3
  5
4D8
 10
193.12288149464618
 20
302.91969505274608
 30
0.0
  0
VERTEX
  8
001
  6
PHANTOM
 62
               3
  5
4D9
 10
193.36055842765523
 20
299.98216679631207
 30
0.0
  0
VERTEX
  8
001
  6
PHANTOM
 62
               3
  5
4DA
 10
193.40696173903268
 20
297.04486423217156
 30
0.0
  0
VERTEX
  8
001
  6
PHANTOM
 62
               3
  5
4DB
 10
193.17928720878959
 20
293.52392595722853
 30
0.0
  0
VERTEX
  8
001
  6
PHANTOM
 62
               3
  5
4DC
 10
192.74150455617448
 20
290.00251907410109
 30
0.0
  0
VERTEX
  8
001
  6
PHANTOM
 62
               3
  5
4DD
 10
192.22709303160684
 20
286.47976956051014
 30
0.0
  0
VERTEX
  8
001
  6
PHANTOM
 62
               3
  5
4DE
 10
191.76953188550621
 20
282.95480339417645
 30
0.0
  0
VERTEX
  8
001
  6
PHANTOM
 62
               3
  5
4DF
 10
191.50230036829205
 20
279.42674655282087
 30
0.0
  0
VERTEX
  8
001
  6
PHANTOM
 62
               3
  5
4E0
 10
191.53648983574217
 20
275.52535791232151
 30
0.0
  0
VERTEX
  8
001
  6
PHANTOM
 62
               3
  5
4E1
 10
191.83111522366292
 20
271.62075858469916
 30
0.0
  0
VERTEX
  8
001
  6
PHANTOM
 62
               3
  5
4E2
 10
192.25149548066415
 20
267.71457567231738
 30
0.0
  0
VERTEX
  8
001
  6
PHANTOM
 62
               3
  5
4E3
 10
192.66294955535571
 20
263.80843627753967
 30
0.0
  0
VERTEX
  8
001
  6
PHANTOM
 62
               3
  5
4E4
 10
192.93079639634752
 20
259.90396750272964
 30
0.0
  0
VERTEX
  8
001
  6
PHANTOM
 62
               3
  5
4E5
 10
192.93463630745455
 20
255.46468392253729
 30
0.0
  0
VERTEX
  8
001
  6
PHANTOM
 62
               3
  5
4E6
 10
192.65021707221248
 20
251.0288162196025
 30
0.0
  0
VERTEX
  8
001
  6
PHANTOM
 62
               3
  5
4E7
 10
192.14960347720856
 20
246.59551042461089
 30
0.0
  0
VERTEX
  8
001
  6
PHANTOM
 62
               3
  5
4E8
 10
191.50486030903008
 20
242.16391256824809
 30
0.0
  0
VERTEX
  8
001
  6
PHANTOM
 62
               3
  5
4E9
 10
190.78805235426429
 20
237.73316868119966
 30
0.0
  0
SEQEND
  8
001
  5
4EA
  0
LINE
  8
001
 62
               3
  5
4EB
 10
1.0600251291988343
 20
493.23326868119966
 30
0.0
 11
-0.8060002745856048
 21
492.73326868119966
 31
0.0
  0
LINE
  8
001
 62
               3
  5
4EC
 10
1.0600251291988343
 20
456.23326868119966
 30
0.0
 11
-0.8060002745856048
 21
456.73326868119966
 31
0.0
  0
LINE
  8
001
 62
               3
  5
4ED
 10
-0.8060002745861539
 20
456.73326868119966
 30
0.0
 11
-0.8060002745861539
 21
492.73326868119966
 31
0.0
  0
LINE
  8
001
 62
               3
  5
4EE
 10
87.193999725413619
 20
390.73326868119966
 30
0.0
 11
13.060025129198607
 21
390.73326868119966
 31
0.0
  0
LINE
  8
001
 62
               3
  5
4EF
 10
87.193999725413619
 20
358.73326868119966
 30
0.0
 11
13.060025129198607
 21
358.73326868119966
 31
0.0
  0
ARC
  8
001
 62
               3
  5
4F0
 10
87.193999725413619
 20
391.73326868119966
 30
0.0
 40
1.0
 50
270.0
 51
0.0
  0
ARC
  8
001
 62
               3
  5
4F1
 10
87.193999725413619
 20
357.73326868119966
 30
0.0
 40
1.0
 50
0.0000000000000127
 51
90.000000000000014
  0
LINE
  8
001
 62
               3
  5
4F2
 10
11.193999725414074
 20
359.23326868119966
 30
0.0
 11
11.193999725414074
 21
390.23326868119966
 31
0.0
  0
LINE
  8
001
 62
               3
  5
4F3
 10
13.060025129198607
 20
390.73326868119966
 30
0.0
 11
11.193999725414168
 21
390.23326868119966
 31
0.0
  0
LINE
  8
001
 62
               3
  5
4F4
 10
13.060025129198607
 20
358.73326868119966
 30
0.0
 11
11.193999725414168
 21
359.23326868119966
 31
0.0
  0
LINE
  8
001
 62
               3
  5
4F5
 10
87.19399972541953
 20
262.23326868119966
 30
0.0
 11
16.060025129203979
 21
262.23326868119966
 31
0.0
  0
LINE
  8
001
 62
               3
  5
4F6
 10
87.19399972541953
 20
287.23326868119966
 30
0.0
 11
16.060025129203979
 21
287.23326868119966
 31
0.0
  0
LINE
  8
001
 62
               3
  5
4F7
 10
14.19399972541953
 20
262.73326868119966
 30
0.0
 11
14.19399972541953
 21
286.73326868119966
 31
0.0
  0
LINE
  8
001
 62
               3
  5
4F8
 10
16.060025129204064
 20
287.23326868119966
 30
0.0
 11
14.193999725419625
 21
286.73326868119966
 31
0.0
  0
ARC
  8
001
 62
               3
  5
4F9
 10
87.19399972541953
 20
288.23326868119966
 30
0.0
 40
1.0
 50
270.0
 51
0.0
  0
LINE
  8
001
 62
               3
  5
4FA
 10
14.19399972541953
 20
262.73326868119966
 30
0.0
 11
16.060025129203979
 21
262.23326868119966
 31
0.0
  0
ARC
  8
001
 62
               3
  5
4FB
 10
87.19399972541953
 20
261.23326868119966
 30
0.0
 40
1.0
 50
0.0000000000000127
 51
90.000000000000014
  0
LINE
  8
001
 62
               3
  5
4FC
 10
1.0600251291988343
 20
493.23326868119966
 30
0.0
 11
88.193999725413619
 21
493.23326868119966
 31
0.0
  0
LINE
  8
001
 62
               3
  5
4FD
 10
1.0600251291988343
 20
456.23326868119966
 30
0.0
 11
88.193999725413619
 21
456.23326868119966
 31
0.0
  0
LINE
  8
001
  6
CENTER
  5
4FE
 10
194.16302763889979
 20
374.73326868119966
 30
0.0
 11
8.9067461646936863
 21
374.73326868119966
 31
0.0
  0
LINE
  8
001
  6
CENTER
  5
4FF
 10
194.16302763889979
 20
274.73326868119966
 30
0.0
 11
12.291598115031547
 21
274.73326868119966
 31
0.0
  0
LINE
  8
001
  6
CENTER
  5
500
 10
194.16302763889979
 20
474.73326868119966
 30
0.0
 11
-3.0217121416810357
 21
474.73326868119966
 31
0.0
  0
LINE
  8
001
 62
               3
  5
501
 10
1.0600251291988343
 20
493.23326868119966
 30
0.0
 11
1.0600251291988343
 21
456.23326868119966
 31
0.0
  0
LINE
  8
001
 62
               3
  5
502
 10
13.060025129198607
 20
390.73326868119966
 30
0.0
 11
13.060025129198607
 21
358.73326868119966
 31
0.0
  0
LINE
  8
001
 62
               3
  5
503
 10
16.060025129204064
 20
287.23326868119966
 30
0.0
 11
16.060025129204064
 21
262.23326868119966
 31
0.0
  0
LINE
  8
001
 62
               3
  5
504
 10
61.193999725413619
 20
88.904909853017671
 30
0.0
 11
64.193999725413619
 21
88.904909853017671
 31
0.0
  0
LINE
  8
001
 62
               3
  5
505
 10
67.193999725413619
 20
87.704909853017853
 30
0.0
 11
64.193999725413619
 21
87.704909853017853
 31
0.0
  0
LINE
  8
001
 62
               3
  5
506
 10
87.193999725413619
 20
89.704909853017853
 30
0.0
 11
67.193999725413619
 21
89.704909853017853
 31
0.0
  0
LINE
  8
001
 62
               3
  5
507
 10
61.193999725413619
 20
88.904909853017671
 30
0.0
 11
60.693999725413619
 21
88.404909853017671
 31
0.0
  0
LINE
  8
001
 62
               3
  5
508
 10
61.193999725413619
 20
62.50490985301758
 30
0.0
 11
64.193999725413619
 21
62.50490985301758
 31
0.0
  0
LINE
  8
001
 62
               3
  5
509
 10
67.193999725413619
 20
63.704909853017853
 30
0.0
 11
64.193999725413619
 21
63.704909853017853
 31
0.0
  0
LINE
  8
001
 62
               3
  5
50A
 10
87.193999725413619
 20
61.704909853017853
 30
0.0
 11
67.193999725413619
 21
61.704909853017853
 31
0.0
  0
LINE
  8
001
 62
               3
  5
50B
 10
60.693999725413619
 20
63.00490985301758
 30
0.0
 11
61.193999725413619
 21
62.50490985301758
 31
0.0
  0
LINE
  8
001
 62
               3
  5
50C
 10
65.193999725413619
 20
72.50490985301758
 30
0.0
 11
65.193999725413619
 21
78.904909853017557
 31
0.0
  0
LINE
  8
001
 62
               3
  5
50D
 10
64.393999725413664
 20
79.704909853017853
 30
0.0
 11
60.693999725413619
 21
79.704909853017853
 31
0.0
  0
LINE
  8
001
 62
               3
  5
50E
 10
64.393999725413664
 20
71.704909853017853
 30
0.0
 11
60.693999725413619
 21
71.704909853017853
 31
0.0
  0
ARC
  8
001
 62
               3
  5
50F
 10
64.393999725413664
 20
78.904909853017671
 30
0.0
 40
0.8
 50
0.0
 51
90.0
  0
ARC
  8
001
 62
               3
  5
510
 10
64.393999725413664
 20
72.50490985301758
 30
0.0
 40
0.8
 50
270.0
 51
0.0
  0
LINE
  8
001
 62
               3
  5
511
 10
60.693999725413619
 20
63.00490985301758
 30
0.0
 11
60.693999725413619
 21
71.704909853017568
 31
0.0
  0
LINE
  8
001
 62
               3
  5
512
 10
60.693999725413619
 20
79.704909853017853
 30
0.0
 11
60.693999725413619
 21
88.404909853017841
 31
0.0
  0
ARC
  8
001
 62
               3
  5
513
 10
87.193999725413619
 20
90.704909853017853
 30
0.0
 40
1.0
 50
270.0
 51
0.0
  0
ARC
  8
001
 62
               3
  5
514
 10
87.193999725413619
 20
60.704909853017853
 30
0.0
 40
1.0
 50
0.0000000000000127
 51
90.000000000000014
  0
LINE
  8
001
 62
               3
  5
515
 10
67.193999725413619
 20
89.704909853017853
 30
0.0
 11
67.193999725413619
 21
61.704909853017853
 31
0.0
  0
LINE
  8
001
 62
               3
  5
516
 10
64.193999725413619
 20
79.704909853017853
 30
0.0
 11
64.193999725413619
 21
88.904909853017898
 31
0.0
  0
LINE
  8
001
 62
               3
  5
517
 10
64.193999725413619
 20
71.704909853017853
 30
0.0
 11
64.193999725413619
 21
62.504909853017807
 31
0.0
  0
LINE
  8
001
  6
PHANTOM
 62
               3
  5
518
 10
190.78805235426427
 20
38.704809853017878
 30
0.0
 11
147.79199972541358
 21
38.704809853017878
 31
0.0
  0
LINE
  8
001
  6
PHANTOM
 62
               3
  5
519
 10
142.19399972541362
 20
40.204809853017878
 30
0.0
 11
147.79199972541358
 21
38.704809853017878
 31
0.0
  0
LINE
  8
001
  6
PHANTOM
 62
               3
  5
51A
 10
142.19399972541362
 20
111.20480985301788
 30
0.0
 11
142.19399972541362
 21
40.204809853017878
 31
0.0
  0
LINE
  8
001
  6
PHANTOM
 62
               3
  5
51B
 10
142.19399972541362
 20
111.20480985301788
 30
0.0
 11
147.79199972541358
 21
112.7047098530179
 31
0.0
  0
LINE
  8
001
  6
PHANTOM
 62
               3
  5
51C
 10
191.74038251110437
 20
112.70475912195297
 30
0.0
 11
147.7919997254136
 21
112.7047098530179
 31
0.0
  0
LINE
  8
001
 62
               3
  5
51D
 10
142.19399972541362
 20
50.704809853018105
 30
0.0
 11
125.69399209601909
 21
50.704809853018105
 31
0.0
  0
LINE
  8
001
 62
               3
  5
51E
 10
104.19399972541362
 20
52.204909853017853
 30
0.0
 11
88.193999725413619
 21
52.204909853017853
 31
0.0
  0
LINE
  8
001
 62
               3
  5
51F
 10
104.19399972541362
 20
99.204909853017853
 30
0.0
 11
88.193999725413619
 21
99.204909853017853
 31
0.0
  0
LINE
  8
001
 62
               3
  5
520
 10
105.69399972541362
 20
99.204909853017853
 30
0.0
 11
104.69399972541362
 21
99.204909853017853
 31
0.0
  0
LINE
  8
001
 62
               3
  5
521
 10
125.69399972541362
 20
105.70490985301785
 30
0.0
 11
105.69399972541362
 21
105.70490985301785
 31
0.0
  0
LINE
  8
001
 62
               3
  5
522
 10
105.69399972541362
 20
52.204909853017853
 30
0.0
 11
104.69399972541362
 21
52.204909853017853
 31
0.0
  0
LINE
  8
001
 62
               3
  5
523
 10
125.69399972541362
 20
45.704909853017853
 30
0.0
 11
105.69399972541362
 21
45.704909853017853
 31
0.0
  0
LINE
  8
001
 62
               3
  5
524
 10
88.193999725413619
 20
99.204909853017853
 30
0.0
 11
88.193999725413619
 21
52.204909853017853
 31
0.0
  0
LINE
  8
001
 62
               3
  5
525
 10
104.19399972541362
 20
99.204909853017853
 30
0.0
 11
104.19399972541362
 21
52.204909853017853
 31
0.0
  0
LINE
  8
001
 62
               3
  5
526
 10
104.69399972541362
 20
52.204909853017853
 30
0.0
 11
104.69399972541362
 21
99.204909853017853
 31
0.0
  0
LINE
  8
001
 62
               3
  5
527
 10
104.19399972541362
 20
54.704909853017853
 30
0.0
 11
104.69399972541362
 21
54.704909853017853
 31
0.0
  0
LINE
  8
001
 62
               3
  5
528
 10
104.19399972541362
 20
96.704909853017853
 30
0.0
 11
104.69399972541362
 21
96.704909853017853
 31
0.0
  0
LINE
  8
001
 62
               3
  5
529
 10
105.69399972541362
 20
45.704909853017853
 30
0.0
 11
105.69399972541362
 21
105.70490985301785
 31
0.0
  0
LINE
  8
001
 62
               3
  5
52A
 10
125.69399972541362
 20
45.704909853017853
 30
0.0
 11
125.69399972541362
 21
105.70490985301785
 31
0.0
  0
LINE
  8
001
 62
               3
  5
52B
 10
142.19399972541362
 20
100.7047098530179
 30
0.0
 11
125.69399972541362
 21
100.7047098530179
 31
0.0
  0
LINE
  8
001
  6
DASHED
 62
               3
  5
52C
 10
113.19399972541373
 20
45.704909853017966
 30
0.0
 11
113.19399972541366
 21
50.704909853017938
 31
0.0
  0
LINE
  8
001
  6
DASHED
 62
               3
  5
52D
 10
112.75899972541356
 20
45.704909853017966
 30
0.0
 11
112.75899972541356
 21
50.704909853017966
 31
0.0
  0
LINE
  8
001
  6
DASHED
 62
               3
  5
52E
 10
108.62899972541368
 20
50.704909853017966
 30
0.0
 11
108.62899972541368
 21
45.704909853017938
 31
0.0
  0
LINE
  8
001
  6
DASHED
 62
               3
  5
52F
 10
108.19399972541362
 20
50.704909853017966
 30
0.0
 11
108.19399972541362
 21
45.704909853017881
 31
0.0
  0
LINE
  8
001
  6
CENTER
  5
530
 10
110.69399972541362
 20
51.243151452517509
 30
0.0
 11
110.69399972541362
 21
44.545682084876205
 31
0.0
  0
POLYLINE
  8
001
  6
PHANTOM
 62
               3
  5
531
 66
               1
 10
0.0
 20
0.0
 30
0.0
  0
VERTEX
  8
001
  6
PHANTOM
 62
               3
  5
532
 10
191.74039105848385
 20
112.70471091920774
 30
0.0
  0
VERTEX
  8
001
  6
PHANTOM
 62
               3
  5
533
 10
192.26497960079502
 20
109.76684412294493
 30
0.0
  0
VERTEX
  8
001
  6
PHANTOM
 62
               3
  5
534
 10
192.74174914927096
 20
106.8290337504498
 30
0.0
  0
VERTEX
  8
001
  6
PHANTOM
 62
               3
  5
535
 10
193.12288149464618
 20
103.89133622456427
 30
0.0
  0
VERTEX
  8
001
  6
PHANTOM
 62
               3
  5
536
 10
193.36055842765523
 20
100.95380796813028
 30
0.0
  0
VERTEX
  8
001
  6
PHANTOM
 62
               3
  5
537
 10
193.40696173903268
 20
98.016505403989768
 30
0.0
  0
VERTEX
  8
001
  6
PHANTOM
 62
               3
  5
538
 10
193.17928720878959
 20
94.495567129046734
 30
0.0
  0
VERTEX
  8
001
  6
PHANTOM
 62
               3
  5
539
 10
192.74150455617448
 20
90.974160245919307
 30
0.0
  0
VERTEX
  8
001
  6
PHANTOM
 62
               3
  5
53A
 10
192.22709303160684
 20
87.451410732328355
 30
0.0
  0
VERTEX
  8
001
  6
PHANTOM
 62
               3
  5
53B
 10
191.76953188550621
 20
83.926444565994672
 30
0.0
  0
VERTEX
  8
001
  6
PHANTOM
 62
               3
  5
53C
 10
191.50230036829205
 20
80.398387724639093
 30
0.0
  0
VERTEX
  8
001
  6
PHANTOM
 62
               3
  5
53D
 10
191.53648983574217
 20
76.496999084139702
 30
0.0
  0
VERTEX
  8
001
  6
PHANTOM
 62
               3
  5
53E
 10
191.83111522366292
 20
72.592399756517324
 30
0.0
  0
VERTEX
  8
001
  6
PHANTOM
 62
               3
  5
53F
 10
192.25149548066415
 20
68.686216844135529
 30
0.0
  0
VERTEX
  8
001
  6
PHANTOM
 62
               3
  5
540
 10
192.66294955535571
 20
64.780077449357861
 30
0.0
  0
VERTEX
  8
001
  6
PHANTOM
 62
               3
  5
541
 10
192.93079639634752
 20
60.875608674547848
 30
0.0
  0
VERTEX
  8
001
  6
PHANTOM
 62
               3
  5
542
 10
192.93463630745455
 20
56.436325094355496
 30
0.0
  0
VERTEX
  8
001
  6
PHANTOM
 62
               3
  5
543
 10
192.65021707221248
 20
52.000457391420717
 30
0.0
  0
VERTEX
  8
001
  6
PHANTOM
 62
               3
  5
544
 10
192.14960347720856
 20
47.567151596429113
 30
0.0
  0
VERTEX
  8
001
  6
PHANTOM
 62
               3
  5
545
 10
191.50486030903008
 20
43.1355537400663
 30
0.0
  0
VERTEX
  8
001
  6
PHANTOM
 62
               3
  5
546
 10
190.78805235426429
 20
38.704809853017871
 30
0.0
  0
SEQEND
  8
001
  5
547
  0
LINE
  8
001
  6
CENTER
  5
548
 10
194.16302763889979
 20
75.704909853017853
 30
0.0
 11
58.456107574534713
 21
75.704909853017853
 31
0.0
  0
LINE
  8
001
  6
PHANTOM
 62
               3
  5
549
 10
190.78805235426427
 20
138.70480985301788
 30
0.0
 11
147.79199972541358
 21
138.70480985301788
 31
0.0
  0
LINE
  8
001
  6
PHANTOM
 62
               3
  5
54A
 10
142.19399972541362
 20
140.20480985301788
 30
0.0
 11
147.79199972541358
 21
138.70480985301788
 31
0.0
  0
LINE
  8
001
  6
PHANTOM
 62
               3
  5
54B
 10
142.19399972541362
 20
211.20480985301788
 30
0.0
 11
142.19399972541362
 21
140.20480985301788
 31
0.0
  0
LINE
  8
001
  6
PHANTOM
 62
               3
  5
54C
 10
142.19399972541362
 20
211.20480985301788
 30
0.0
 11
147.79199972541358
 21
212.7047098530179
 31
0.0
  0
LINE
  8
001
  6
PHANTOM
 62
               3
  5
54D
 10
191.74038251110437
 20
212.70475912195297
 30
0.0
 11
147.7919997254136
 21
212.7047098530179
 31
0.0
  0
LINE
  8
001
 62
               3
  5
54E
 10
142.19399972541362
 20
150.70480985301811
 30
0.0
 11
125.69399209601909
 21
150.70480985301811
 31
0.0
  0
LINE
  8
001
 62
               3
  5
54F
 10
104.19399972541362
 20
152.20490985301785
 30
0.0
 11
88.193999725413619
 21
152.20490985301785
 31
0.0
  0
LINE
  8
001
 62
               3
  5
550
 10
104.19399972541362
 20
199.20490985301785
 30
0.0
 11
88.193999725413619
 21
199.20490985301785
 31
0.0
  0
LINE
  8
001
 62
               3
  5
551
 10
105.69399972541362
 20
199.20490985301785
 30
0.0
 11
104.69399972541362
 21
199.20490985301785
 31
0.0
  0
LINE
  8
001
 62
               3
  5
552
 10
125.69399972541362
 20
205.70490985301785
 30
0.0
 11
105.69399972541362
 21
205.70490985301785
 31
0.0
  0
LINE
  8
001
 62
               3
  5
553
 10
105.69399972541362
 20
152.20490985301785
 30
0.0
 11
104.69399972541362
 21
152.20490985301785
 31
0.0
  0
LINE
  8
001
 62
               3
  5
554
 10
125.69399972541362
 20
145.70490985301785
 30
0.0
 11
105.69399972541362
 21
145.70490985301785
 31
0.0
  0
LINE
  8
001
 62
               3
  5
555
 10
88.193999725413619
 20
199.20490985301785
 30
0.0
 11
88.193999725413619
 21
152.20490985301785
 31
0.0
  0
LINE
  8
001
 62
               3
  5
556
 10
104.19399972541362
 20
199.20490985301785
 30
0.0
 11
104.19399972541362
 21
152.20490985301785
 31
0.0
  0
LINE
  8
001
 62
               3
  5
557
 10
104.69399972541362
 20
152.20490985301785
 30
0.0
 11
104.69399972541362
 21
199.20490985301785
 31
0.0
  0
LINE
  8
001
 62
               3
  5
558
 10
104.19399972541362
 20
154.70490985301785
 30
0.0
 11
104.69399972541362
 21
154.70490985301785
 31
0.0
  0
LINE
  8
001
 62
               3
  5
559
 10
104.19399972541362
 20
196.70490985301785
 30
0.0
 11
104.69399972541362
 21
196.70490985301785
 31
0.0
  0
LINE
  8
001
 62
               3
  5
55A
 10
105.69399972541362
 20
145.70490985301785
 30
0.0
 11
105.69399972541362
 21
205.70490985301785
 31
0.0
  0
LINE
  8
001
 62
               3
  5
55B
 10
125.69399972541362
 20
145.70490985301785
 30
0.0
 11
125.69399972541362
 21
205.70490985301785
 31
0.0
  0
LINE
  8
001
 62
               3
  5
55C
 10
142.19399972541362
 20
200.7047098530179
 30
0.0
 11
125.69399972541362
 21
200.7047098530179
 31
0.0
  0
LINE
  8
001
  6
DASHED
 62
               3
  5
55D
 10
113.19399972541373
 20
145.70490985301797
 30
0.0
 11
113.19399972541366
 21
150.70490985301794
 31
0.0
  0
LINE
  8
001
  6
DASHED
 62
               3
  5
55E
 10
112.75899972541356
 20
145.70490985301797
 30
0.0
 11
112.75899972541356
 21
150.70490985301797
 31
0.0
  0
LINE
  8
001
  6
DASHED
 62
               3
  5
55F
 10
108.62899972541368
 20
150.70490985301797
 30
0.0
 11
108.62899972541368
 21
145.70490985301794
 31
0.0
  0
LINE
  8
001
  6
DASHED
 62
               3
  5
560
 10
108.19399972541362
 20
150.70490985301797
 30
0.0
 11
108.19399972541362
 21
145.70490985301788
 31
0.0
  0
LINE
  8
001
  6
CENTER
  5
561
 10
110.69399972541362
 20
151.24315145251751
 30
0.0
 11
110.69399972541362
 21
144.5456820848762
 31
0.0
  0
POLYLINE
  8
001
  6
PHANTOM
 62
               3
  5
562
 66
               1
 10
0.0
 20
0.0
 30
0.0
  0
VERTEX
  8
001
  6
PHANTOM
 62
               3
  5
563
 10
191.74039105848385
 20
212.70471091920774
 30
0.0
  0
VERTEX
  8
001
  6
PHANTOM
 62
               3
  5
564
 10
192.26497960079502
 20
209.76684412294492
 30
0.0
  0
VERTEX
  8
001
  6
PHANTOM
 62
               3
  5
565
 10
192.74174914927096
 20
206.82903375044978
 30
0.0
  0
VERTEX
  8
001
  6
PHANTOM
 62
               3
  5
566
 10
193.12288149464618
 20
203.89133622456427
 30
0.0
  0
VERTEX
  8
001
  6
PHANTOM
 62
               3
  5
567
 10
193.36055842765523
 20
200.95380796813029
 30
0.0
  0
VERTEX
  8
001
  6
PHANTOM
 62
               3
  5
568
 10
193.40696173903268
 20
198.01650540398975
 30
0.0
  0
VERTEX
  8
001
  6
PHANTOM
 62
               3
  5
569
 10
193.17928720878959
 20
194.49556712904672
 30
0.0
  0
VERTEX
  8
001
  6
PHANTOM
 62
               3
  5
56A
 10
192.74150455617448
 20
190.97416024591931
 30
0.0
  0
VERTEX
  8
001
  6
PHANTOM
 62
               3
  5
56B
 10
192.22709303160684
 20
187.45141073232833
 30
0.0
  0
VERTEX
  8
001
  6
PHANTOM
 62
               3
  5
56C
 10
191.76953188550621
 20
183.92644456599464
 30
0.0
  0
VERTEX
  8
001
  6
PHANTOM
 62
               3
  5
56D
 10
191.50230036829205
 20
180.39838772463909
 30
0.0
  0
VERTEX
  8
001
  6
PHANTOM
 62
               3
  5
56E
 10
191.53648983574217
 20
176.4969990841397
 30
0.0
  0
VERTEX
  8
001
  6
PHANTOM
 62
               3
  5
56F
 10
191.83111522366292
 20
172.59239975651735
 30
0.0
  0
VERTEX
  8
001
  6
PHANTOM
 62
               3
  5
570
 10
192.25149548066415
 20
168.68621684413554
 30
0.0
  0
VERTEX
  8
001
  6
PHANTOM
 62
               3
  5
571
 10
192.66294955535571
 20
164.78007744935789
 30
0.0
  0
VERTEX
  8
001
  6
PHANTOM
 62
               3
  5
572
 10
192.93079639634752
 20
160.87560867454786
 30
0.0
  0
VERTEX
  8
001
  6
PHANTOM
 62
               3
  5
573
 10
192.93463630745455
 20
156.43632509435548
 30
0.0
  0
VERTEX
  8
001
  6
PHANTOM
 62
               3
  5
574
 10
192.65021707221248
 20
152.0004573914207
 30
0.0
  0
VERTEX
  8
001
  6
PHANTOM
 62
               3
  5
575
 10
192.14960347720856
 20
147.56715159642908
 30
0.0
  0
VERTEX
  8
001
  6
PHANTOM
 62
               3
  5
576
 10
191.50486030903008
 20
143.13555374006629
 30
0.0
  0
VERTEX
  8
001
  6
PHANTOM
 62
               3
  5
577
 10
190.78805235426429
 20
138.70480985301785
 30
0.0
  0
SEQEND
  8
001
  5
578
  0
ARC
  8
001
 62
               3
  5
579
 10
87.193999725413619
 20
192.90490985301778
 30
0.0
 40
1.0
 50
270.0
 51
0.0
  0
ARC
  8
001
 62
               3
  5
57A
 10
87.193999725413619
 20
158.50490985301769
 30
0.0
 40
1.0
 50
0.0
 51
90.0
  0
LINE
  8
001
 62
               3
  5
57B
 10
43.193999725413903
 20
191.90490985301778
 30
0.0
 11
87.193999725413619
 21
191.90490985301778
 31
0.0
  0
LINE
  8
001
 62
               3
  5
57C
 10
43.193999725413903
 20
190.70490985301785
 30
0.0
 11
40.193999725413903
 21
190.70490985301785
 31
0.0
  0
LINE
  8
001
 62
               3
  5
57D
 10
37.193999725413903
 20
191.90490985301767
 30
0.0
 11
40.193999725413903
 21
191.90490985301767
 31
0.0
  0
LINE
  8
001
 62
               3
  5
57E
 10
37.193999725413903
 20
191.90490985301767
 30
0.0
 11
36.693999725413903
 21
191.40490985301767
 31
0.0
  0
LINE
  8
001
 62
               3
  5
57F
 10
41.193999725413903
 20
171.50490985301758
 30
0.0
 11
41.193999725413903
 21
179.90490985301756
 31
0.0
  0
LINE
  8
001
 62
               3
  5
580
 10
40.393999725413948
 20
180.70490985301785
 30
0.0
 11
36.693999725413903
 21
180.70490985301785
 31
0.0
  0
LINE
  8
001
 62
               3
  5
581
 10
40.393999725413948
 20
170.70490985301774
 30
0.0
 11
36.693999725413903
 21
170.70490985301774
 31
0.0
  0
ARC
  8
001
 62
               3
  5
582
 10
40.393999725413948
 20
179.90490985301767
 30
0.0
 40
0.8
 50
0.0
 51
90.0
  0
ARC
  8
001
 62
               3
  5
583
 10
40.393999725413948
 20
171.50490985301758
 30
0.0
 40
0.8
 50
270.0
 51
0.0
  0
LINE
  8
001
 62
               3
  5
584
 10
36.693999725413903
 20
191.40490985301767
 30
0.0
 11
36.693999725413903
 21
180.70490985301768
 31
0.0
  0
LINE
  8
001
 62
               3
  5
585
 10
36.693999725413903
 20
160.00490985301747
 30
0.0
 11
36.693999725413903
 21
170.70490985301745
 31
0.0
  0
LINE
  8
001
 62
               3
  5
586
 10
43.193999725413903
 20
159.50490985301769
 30
0.0
 11
87.193999725413619
 21
159.50490985301769
 31
0.0
  0
LINE
  8
001
 62
               3
  5
587
 10
43.193999725413903
 20
160.70490985301774
 30
0.0
 11
40.193999725413903
 21
160.70490985301774
 31
0.0
  0
LINE
  8
001
 62
               3
  5
588
 10
37.193999725413903
 20
159.50490985301747
 30
0.0
 11
40.193999725413903
 21
159.50490985301747
 31
0.0
  0
LINE
  8
001
 62
               3
  5
589
 10
36.693999725413903
 20
160.00490985301747
 30
0.0
 11
37.193999725413903
 21
159.50490985301747
 31
0.0
  0
LINE
  8
001
  6
CENTER
  5
58A
 10
194.16302763889979
 20
175.70490985301785
 30
0.0
 11
35.413561094248621
 21
175.70490985301785
 31
0.0
  0
LINE
  8
001
 62
               3
  5
58B
 10
40.193999725413903
 20
180.70490985301785
 30
0.0
 11
40.193999725413903
 21
191.90490985301784
 31
0.0
  0
LINE
  8
001
 62
               3
  5
58C
 10
40.193999725413903
 20
170.70490985301774
 30
0.0
 11
40.193999725413903
 21
159.50490985301775
 31
0.0
  0
LINE
  8
001
 62
               3
  5
58D
 10
43.193999725413903
 20
159.50490985301769
 30
0.0
 11
43.193999725413903
 21
191.90490985301778
 31
0.0
  0
LINE
  8
001
  6
PHANTOM
 62
               3
  5
58E
 10
142.19399972541362
 20
626.01914948740296
 30
0.0
 11
142.19399972541362
 21
555.01914948740296
 31
0.0
  0
LINE
  8
001
  6
PHANTOM
 62
               3
  5
58F
 10
142.19399972541362
 20
555.01914948740296
 30
0.0
 11
147.79199972541363
 21
553.51914948740296
 31
0.0
  0
LINE
  8
001
  6
PHANTOM
 62
               3
  5
590
 10
189.94010120354969
 20
553.51912586205037
 30
0.0
 11
147.79199972541363
 21
553.51914948740296
 31
0.0
  0
LINE
  8
001
 62
               3
  5
591
 10
142.19399972541351
 20
565.51914948740273
 30
0.0
 11
125.69399972541365
 21
565.51914948740273
 31
0.0
  0
LINE
  8
001
 62
               3
  5
592
 10
142.19399972541351
 20
615.51914948740318
 30
0.0
 11
125.69399972541365
 21
615.51914948740318
 31
0.0
  0
LINE
  8
001
  6
CENTER
  5
593
 10
40.417660776267837
 20
590.51914948740296
 30
0.0
 11
192.30967394755527
 21
590.51914948740296
 31
0.0
  0
POLYLINE
  8
001
  6
PHANTOM
 62
               3
  5
594
 66
               1
 10
0.0
 20
0.0
 30
0.0
  0
VERTEX
  8
001
  6
PHANTOM
 62
               3
  5
595
 10
189.15024677551546
 20
627.51914948754927
 30
0.0
  0
VERTEX
  8
001
  6
PHANTOM
 62
               3
  5
596
 10
189.45713731296479
 20
625.39690853990487
 30
0.0
  0
VERTEX
  8
001
  6
PHANTOM
 62
               3
  5
597
 10
189.73996210237897
 20
623.27435871877549
 30
0.0
  0
VERTEX
  8
001
  6
PHANTOM
 62
               3
  5
598
 10
189.97465565861043
 20
621.15119115405014
 30
0.0
  0
VERTEX
  8
001
  6
PHANTOM
 62
               3
  5
599
 10
190.13715249651167
 20
619.02709697561795
 30
0.0
  0
VERTEX
  8
001
  6
PHANTOM
 62
               3
  5
59A
 10
190.20338713093511
 20
616.90176731336794
 30
0.0
  0
VERTEX
  8
001
  6
PHANTOM
 62
               3
  5
59B
 10
190.10659346390148
 20
613.79782458534112
 30
0.0
  0
VERTEX
  8
001
  6
PHANTOM
 62
               3
  5
59C
 10
189.85322623255558
 20
610.69152997741458
 30
0.0
  0
VERTEX
  8
001
  6
PHANTOM
 62
               3
  5
59D
 10
189.54294149389548
 20
607.58382020624401
 30
0.0
  0
VERTEX
  8
001
  6
PHANTOM
 62
               3
  5
59E
 10
189.27539530491927
 20
604.47563198848536
 30
0.0
  0
VERTEX
  8
001
  6
PHANTOM
 62
               3
  5
59F
 10
189.15024372262502
 20
601.36790204079421
 30
0.0
  0
VERTEX
  8
001
  6
PHANTOM
 62
               3
  5
5A0
 10
189.26313650656218
 20
597.83849924891467
 30
0.0
  0
VERTEX
  8
001
  6
PHANTOM
 62
               3
  5
5A1
 10
189.56984956151666
 20
594.31033988941715
 30
0.0
  0
VERTEX
  8
001
  6
PHANTOM
 62
               3
  5
5A2
 10
189.95175915054131
 20
590.78286671693991
 30
0.0
  0
VERTEX
  8
001
  6
PHANTOM
 62
               3
  5
5A3
 10
190.29024153668902
 20
587.25552248612144
 30
0.0
  0
VERTEX
  8
001
  6
PHANTOM
 62
               3
  5
5A4
 10
190.46667298301261
 20
583.72774995160012
 30
0.0
  0
VERTEX
  8
001
  6
PHANTOM
 62
               3
  5
5A5
 10
190.40952474361939
 20
580.41230838730951
 30
0.0
  0
VERTEX
  8
001
  6
PHANTOM
 62
               3
  5
5A6
 10
190.19011532288653
 20
577.09594175423626
 30
0.0
  0
VERTEX
  8
001
  6
PHANTOM
 62
               3
  5
5A7
 10
189.8939656810193
 20
573.77859503522006
 30
0.0
  0
VERTEX
  8
001
  6
PHANTOM
 62
               3
  5
5A8
 10
189.60659677822289
 20
570.46021321310025
 30
0.0
  0
VERTEX
  8
001
  6
PHANTOM
 62
               3
  5
5A9
 10
189.41352957470255
 20
567.14074127071638
 30
0.0
  0
VERTEX
  8
001
  6
PHANTOM
 62
               3
  5
5AA
 10
189.37368354341152
 20
564.41734722608282
 30
0.0
  0
VERTEX
  8
001
  6
PHANTOM
 62
               3
  5
5AB
 10
189.43061079629817
 20
561.69333691479108
 30
0.0
  0
VERTEX
  8
001
  6
PHANTOM
 62
               3
  5
5AC
 10
189.56011806377339
 20
558.96886440317803
 30
0.0
  0
VERTEX
  8
001
  6
PHANTOM
 62
               3
  5
5AD
 10
189.73801207624817
 20
556.24408375758048
 30
0.0
  0
VERTEX
  8
001
  6
PHANTOM
 62
               3
  5
5AE
 10
189.94009956413342
 20
553.51914904433545
 30
0.0
  0
SEQEND
  8
001
  5
5AF
  0
LINE
  8
001
  6
DASHED
 62
               3
  5
5B0
 10
108.19399972541365
 20
565.51914948740296
 30
0.0
 11
108.19399972541365
 21
560.51914948740296
 31
0.0
  0
LINE
  8
001
  6
DASHED
 62
               3
  5
5B1
 10
108.62899972541371
 20
565.51914948740296
 30
0.0
 11
108.62899972541371
 21
560.51914948740307
 31
0.0
  0
LINE
  8
001
  6
DASHED
 62
               3
  5
5B2
 10
113.19399972541376
 20
560.51914948740307
 30
0.0
 11
113.19399972541369
 21
565.51914948740307
 31
0.0
  0
LINE
  8
001
  6
DASHED
 62
               3
  5
5B3
 10
112.75899972541359
 20
560.51914948740307
 30
0.0
 11
112.75899972541359
 21
565.51914948740307
 31
0.0
  0
LINE
  8
001
  6
CENTER
  5
5B4
 10
110.69399972541365
 20
565.51914948740296
 30
0.0
 11
110.69399972541365
 21
559.35992171926137
 31
0.0
  0
LINE
  8
001
 62
               3
  5
5B5
 10
105.69399972541365
 20
620.51914948740296
 30
0.0
 11
105.69399972541365
 21
560.51914948740296
 31
0.0
  0
LINE
  8
001
 62
               3
  5
5B6
 10
104.69399972541365
 20
614.01914948740296
 30
0.0
 11
104.69399972541365
 21
567.01914948740296
 31
0.0
  0
LINE
  8
001
 62
               3
  5
5B7
 10
104.19399972541365
 20
567.01914948740296
 30
0.0
 11
104.19399972541365
 21
614.01914948740296
 31
0.0
  0
LINE
  8
001
 62
               3
  5
5B8
 10
68.693999725413647
 20
578.01914948740296
 30
0.0
 11
68.693999725413647
 21
603.01914948740296
 31
0.0
  0
LINE
  8
001
 62
               3
  5
5B9
 10
125.69399972541365
 20
620.51914948740296
 30
0.0
 11
125.69399972541365
 21
560.51914948740296
 31
0.0
  0
LINE
  8
001
 62
               3
  5
5BA
 10
104.19399972541365
 20
569.51914948740296
 30
0.0
 11
104.69399972541365
 21
569.51914948740296
 31
0.0
  0
LINE
  8
001
 62
               3
  5
5BB
 10
88.193999725413647
 20
567.01914948740296
 30
0.0
 11
88.193999725413647
 21
614.01914948740296
 31
0.0
  0
LINE
  8
001
 62
               3
  5
5BC
 10
104.19399972541365
 20
611.51914948740296
 30
0.0
 11
104.69399972541365
 21
611.51914948740296
 31
0.0
  0
LINE
  8
001
 62
               3
  5
5BD
 10
104.19399972541365
 20
567.01914948740296
 30
0.0
 11
88.193999725413647
 21
567.01914948740296
 31
0.0
  0
LINE
  8
001
 62
               3
  5
5BE
 10
104.19399972541365
 20
614.01914948740296
 30
0.0
 11
88.193999725413647
 21
614.01914948740296
 31
0.0
  0
LINE
  8
001
 62
               3
  5
5BF
 10
105.69399972541365
 20
614.01914948740296
 30
0.0
 11
104.69399972541365
 21
614.01914948740296
 31
0.0
  0
LINE
  8
001
 62
               3
  5
5C0
 10
125.69399972541365
 20
620.51914948740296
 30
0.0
 11
105.69399972541365
 21
620.51914948740296
 31
0.0
  0
LINE
  8
001
 62
               3
  5
5C1
 10
105.69399972541365
 20
567.01914948740296
 30
0.0
 11
104.69399972541365
 21
567.01914948740296
 31
0.0
  0
LINE
  8
001
 62
               3
  5
5C2
 10
125.69399972541365
 20
560.51914948740296
 30
0.0
 11
105.69399972541365
 21
560.51914948740296
 31
0.0
  0
LINE
  8
001
 62
               3
  5
5C3
 10
75.693999725413647
 20
605.01914948740296
 30
0.0
 11
87.193999725413647
 21
605.01914948740296
 31
0.0
  0
ARC
  8
001
 62
               3
  5
5C4
 10
87.193999725413647
 20
606.01914948740296
 30
0.0
 40
1.0
 50
270.0
 51
0.0
  0
LINE
  8
001
 62
               3
  5
5C5
 10
75.193999725413875
 20
604.51914948740296
 30
0.0
 11
75.693999725413804
 21
605.01914948740284
 31
0.0
  0
ARC
  8
001
 62
               3
  5
5C6
 10
73.257508052310101
 20
605.01914948740296
 30
0.0
 40
2.0
 50
270.0
 51
345.52248781407252
  0
LINE
  8
001
  6
DASHED
 62
               3
  5
5C7
 10
85.193999725413647
 20
583.76914948740296
 30
0.0
 11
85.193999725413647
 21
597.26914948740296
 31
0.0
  0
LINE
  8
001
  6
DASHED
 62
               3
  5
5C8
 10
78.318951323162224
 20
597.26914948740296
 30
0.0
 11
85.193999725413548
 21
597.26914948740296
 31
0.0
  0
LINE
  8
001
  6
DASHED
 62
               3
  5
5C9
 10
85.193999725413647
 20
597.26914948740296
 30
0.0
 11
89.091114042443621
 21
590.51914948740296
 31
0.0
  0
LINE
  8
001
  6
DASHED
 62
               3
  5
5CA
 10
85.193999725413647
 20
583.76914948740296
 30
0.0
 11
78.318951323162224
 21
583.76914948740296
 31
0.0
  0
LINE
  8
001
  6
DASHED
 62
               3
  5
5CB
 10
85.193999725413647
 20
583.76914948740296
 30
0.0
 11
89.091114042443621
 21
590.51914948740296
 31
0.0
  0
LINE
  8
001
 62
               3
  5
5CC
 10
75.693999725413647
 20
576.01914948740296
 30
0.0
 11
87.193999725413647
 21
576.01914948740296
 31
0.0
  0
ARC
  8
001
 62
               3
  5
5CD
 10
87.193999725413647
 20
575.01914948740296
 30
0.0
 40
1.0
 50
0.0000000000000127
 51
90.000000000000014
  0
LINE
  8
001
 62
               3
  5
5CE
 10
75.193999725413647
 20
576.51914948740296
 30
0.0
 11
75.69399972541369
 21
576.01914948740296
 31
0.0
  0
ARC
  8
001
 62
               3
  5
5CF
 10
73.257508052310101
 20
576.01914948740296
 30
0.0
 40
2.0
 50
14.477512185927504
 51
90.000000000000014
  0
LINE
  8
001
 62
               3
  5
5D0
 10
43.693999725413647
 20
576.51914948740296
 30
0.0
 11
43.693999725413647
 21
604.51914948740296
 31
0.0
  0
LINE
  8
001
 62
               3
  5
5D1
 10
62.693999725413647
 20
574.51914948740296
 30
0.0
 11
62.693999725413647
 21
606.51914948740296
 31
0.0
  0
LINE
  8
001
 62
               3
  5
5D2
 10
45.426050532982714
 20
607.51914948740296
 30
0.0
 11
61.693999725413647
 21
607.51914948740296
 31
0.0
  0
LINE
  8
001
 62
               3
  5
5D3
 10
45.426050532982714
 20
573.51914948740296
 30
0.0
 11
61.693999725413647
 21
573.51914948740296
 31
0.0
  0
LINE
  8
001
 62
               3
  5
5D4
 10
45.426050532982714
 20
599.50953054416982
 30
0.0
 11
55.693999725413647
 21
599.50953054416982
 31
0.0
  0
LINE
  8
001
 62
               3
  5
5D5
 10
45.426050532982714
 20
598.51914948740296
 30
0.0
 11
55.693999725413647
 21
598.51914948740296
 31
0.0
  0
LINE
  8
001
 62
               3
  5
5D6
 10
45.426050532982714
 20
582.51914948740296
 30
0.0
 11
55.693999725413647
 21
582.51914948740296
 31
0.0
  0
LINE
  8
001
 62
               3
  5
5D7
 10
45.426050532982714
 20
581.52876843063632
 30
0.0
 11
55.693999725413647
 21
581.52876843063632
 31
0.0
  0
LINE
  8
001
 62
               3
  5
5D8
 10
43.693999725413647
 20
604.51914948740296
 30
0.0
 11
45.426050532982714
 21
607.51914948740296
 31
0.0
  0
LINE
  8
001
 62
               3
  5
5D9
 10
43.693999725413647
 20
576.51914948740296
 30
0.0
 11
45.426050532982714
 21
573.51914948740296
 31
0.0
  0
LINE
  8
001
 62
               3
  5
5DA
 10
55.693999725413647
 20
573.51914948740296
 30
0.0
 11
55.693999725413647
 21
581.52876843063632
 31
0.0
  0
LINE
  8
001
 62
               3
  5
5DB
 10
55.693999725413647
 20
582.51914948740296
 30
0.0
 11
55.693999725413647
 21
598.51914948740296
 31
0.0
  0
LINE
  8
001
 62
               3
  5
5DC
 10
55.693999725413647
 20
599.50953054416982
 30
0.0
 11
55.693999725413647
 21
607.51914948740296
 31
0.0
  0
LINE
  8
001
 62
               3
  5
5DD
 10
45.426050532982714
 20
599.50953054416982
 30
0.0
 11
45.426050532982714
 21
598.51914948740296
 31
0.0
  0
LINE
  8
001
 62
               3
  5
5DE
 10
45.426050532982714
 20
582.51914948740296
 30
0.0
 11
45.426050532982259
 21
581.52876843063632
 31
0.0
  0
LINE
  8
001
 62
               3
  5
5DF
 10
61.693999725413647
 20
607.51914948740296
 30
0.0
 11
62.693999725413647
 21
606.51914948740296
 31
0.0
  0
LINE
  8
001
 62
               3
  5
5E0
 10
62.693999725413647
 20
574.51914948740296
 30
0.0
 11
61.693999725413647
 21
573.51914948740296
 31
0.0
  0
LINE
  8
001
 62
               3
  5
5E1
 10
61.693999725413647
 20
607.51914948740296
 30
0.0
 11
61.693999725413647
 21
573.51914948740296
 31
0.0
  0
LINE
  8
001
 62
               3
  5
5E2
 10
55.693999725413647
 20
607.51914948740296
 30
0.0
 11
45.426050532982714
 21
599.50953054416982
 31
0.0
  0
LINE
  8
001
 62
               3
  5
5E3
 10
45.426050532982714
 20
607.51914948740296
 30
0.0
 11
55.693999725413647
 21
599.50953054416982
 31
0.0
  0
LINE
  8
001
 62
               3
  5
5E4
 10
55.693999725413647
 20
598.51914948740296
 30
0.0
 11
45.426050532982714
 21
582.51914948740296
 31
0.0
  0
LINE
  8
001
 62
               3
  5
5E5
 10
45.426050532982714
 20
598.51914948740296
 30
0.0
 11
55.693999725413647
 21
582.51914948740296
 31
0.0
  0
LINE
  8
001
 62
               3
  5
5E6
 10
55.693999725413647
 20
581.52876843063609
 30
0.0
 11
45.426050532982714
 21
573.51914948740296
 31
0.0
  0
LINE
  8
001
 62
               3
  5
5E7
 10
45.426050532982259
 20
581.52876843063632
 30
0.0
 11
55.693999725413647
 21
573.51914948740296
 31
0.0
  0
ARC
  8
001
 62
               3
  5
5E8
 10
63.03523374326565
 20
590.51914948740296
 30
0.0
 40
19.341234017851722
 50
155.56730232054483
 51
204.43269767945517
  0
ARC
  8
001
 62
               3
  5
5E9
 10
51.804697700791309
 20
604.51914948740296
 30
0.0
 40
8.1106979753779402
 50
180.0
 51
218.14514360912378
  0
ARC
  8
001
 62
               3
  5
5EA
 10
51.804697700791309
 20
576.51914948740296
 30
0.0
 40
8.1106979753778887
 50
141.85485639087653
 51
180.0
  0
ARC
  8
001
 62
               3
  5
5EB
 10
40.693999725414102
 20
590.51914948740296
 30
0.0
 40
16.999999999999545
 50
331.92751306414669
 51
28.072486935853323
  0
ARC
  8
001
 62
               3
  5
5EC
 10
52.684380782180284
 20
603.51434001578627
 30
0.0
 40
5.0096212518930203
 50
306.92490429281207
 51
53.075095707186641
  0
ARC
  8
001
 62
               3
  5
5ED
 10
52.684380782180284
 20
577.52395895901964
 30
0.0
 40
5.0096212518930319
 50
306.92490429281247
 51
53.075095707187558
  0
LINE
  8
001
 62
               3
  5
5EE
 10
62.693999725413647
 20
603.01914948740296
 30
0.0
 11
73.257508052310101
 21
603.01914948740296
 31
0.0
  0
LINE
  8
001
 62
               3
  5
5EF
 10
62.693999725413647
 20
602.26914948740296
 30
0.0
 11
68.693999725413647
 21
602.26914948740296
 31
0.0
  0
LINE
  8
001
 62
               3
  5
5F0
 10
62.693999725413647
 20
578.76914948740296
 30
0.0
 11
68.693999725413647
 21
578.76914948740296
 31
0.0
  0
LINE
  8
001
 62
               3
  5
5F1
 10
62.693999725413647
 20
578.01914948740296
 30
0.0
 11
73.257508052309987
 21
578.01914948740296
 31
0.0
  0
LINE
  8
001
 62
               3
  5
5F2
 10
73.193999725413647
 20
598.65855978545278
 30
0.0
 11
87.193999725413647
 21
598.65855978545278
 31
0.0
  0
LINE
  8
001
 62
               3
  5
5F3
 10
73.193999725413647
 20
598.65855978545278
 30
0.0
 11
73.193999725413647
 21
582.37973918935313
 31
0.0
  0
LINE
  8
001
 62
               3
  5
5F4
 10
73.193999725413647
 20
582.37973918935313
 30
0.0
 11
87.193999725413647
 21
582.37973918935313
 31
0.0
  0
LINE
  8
001
 62
               3
  5
5F5
 10
87.193999725413647
 20
598.65855978545278
 30
0.0
 11
87.193999725413647
 21
582.37973918935313
 31
0.0
  0
LINE
  8
001
 62
               3
  5
5F6
 10
75.693999725413875
 20
598.65855978545278
 30
0.0
 11
75.693999725413875
 21
605.01914948740296
 31
0.0
  0
LINE
  8
001
 62
               3
  5
5F7
 10
75.693999725413875
 20
582.37973918935313
 30
0.0
 11
75.693999725413875
 21
576.01914948740296
 31
0.0
  0
LINE
  8
001
 62
               3
  5
5F8
 10
87.193999725413647
 20
598.65855978545278
 30
0.0
 11
73.193999725413647
 21
582.37973918935313
 31
0.0
  0
LINE
  8
001
 62
               3
  5
5F9
 10
73.193999725413647
 20
598.65855978545278
 30
0.0
 11
87.193999725413647
 21
582.37973918935313
 31
0.0
  0
LINE
  8
001
  6
PHANTOM
 62
               3
  5
5FA
 10
142.19399972541362
 20
626.01914948740296
 30
0.0
 11
147.79199972541363
 21
627.51914948740296
 31
0.0
  0
LINE
  8
001
  6
PHANTOM
 62
               3
  5
5FB
 10
189.15024344245674
 20
627.51917267001511
 30
0.0
 11
147.79199972541363
 21
627.51914948740296
 31
0.0
  0
LINE
  8
001
  6
PHANTOM
  5
5FC
 10
142.19399972541362
 20
756.01914948740296
 30
0.0
 11
142.19399972541362
 21
824.92982328098515
 31
0.0
  0
LINE
  8
001
  6
PHANTOM
 62
               3
  5
5FD
 10
142.19399972541362
 20
756.01914948740296
 30
0.0
 11
142.19399972541362
 21
685.01914948740296
 31
0.0
  0
LINE
  8
001
 62
               3
  5
5FE
 10
116.92599972541359
 20
695.51914948740273
 30
0.0
 11
142.19399972541353
 21
695.51914948740273
 31
0.0
  0
LINE
  8
001
 62
               3
  5
5FF
 10
116.92599972541359
 20
745.51914948740318
 30
0.0
 11
142.19399972541353
 21
745.51914948740318
 31
0.0
  0
LINE
  8
001
  6
PHANTOM
 62
               3
  5
600
 10
142.19399972541362
 20
756.01914948740296
 30
0.0
 11
147.79199972541363
 21
757.51914948740296
 31
0.0
  0
LINE
  8
001
  6
PHANTOM
 62
               3
  5
601
 10
189.15024344245671
 20
757.51917267001522
 30
0.0
 11
147.79199972541358
 21
757.51914948740307
 31
0.0
  0
POLYLINE
  8
001
  6
PHANTOM
 62
               3
  5
602
 66
               1
 10
0.0
 20
0.0
 30
0.0
  0
VERTEX
  8
001
  6
PHANTOM
 62
               3
  5
603
 10
189.15024677551548
 20
757.51914948754938
 30
0.0
  0
VERTEX
  8
001
  6
PHANTOM
 62
               3
  5
604
 10
189.45713731296482
 20
755.39690853990498
 30
0.0
  0
VERTEX
  8
001
  6
PHANTOM
 62
               3
  5
605
 10
189.739962102379
 20
753.2743587187756
 30
0.0
  0
VERTEX
  8
001
  6
PHANTOM
 62
               3
  5
606
 10
189.97465565861046
 20
751.15119115405025
 30
0.0
  0
VERTEX
  8
001
  6
PHANTOM
 62
               3
  5
607
 10
190.1371524965117
 20
749.02709697561806
 30
0.0
  0
VERTEX
  8
001
  6
PHANTOM
 62
               3
  5
608
 10
190.20338713093514
 20
746.90176731336805
 30
0.0
  0
VERTEX
  8
001
  6
PHANTOM
 62
               3
  5
609
 10
190.1065934639015
 20
743.79782458534123
 30
0.0
  0
VERTEX
  8
001
  6
PHANTOM
 62
               3
  5
60A
 10
189.85322623255561
 20
740.69152997741469
 30
0.0
  0
VERTEX
  8
001
  6
PHANTOM
 62
               3
  5
60B
 10
189.54294149389551
 20
737.58382020624413
 30
0.0
  0
VERTEX
  8
001
  6
PHANTOM
 62
               3
  5
60C
 10
189.2753953049193
 20
734.47563198848547
 30
0.0
  0
VERTEX
  8
001
  6
PHANTOM
 62
               3
  5
60D
 10
189.15024372262505
 20
731.36790204079432
 30
0.0
  0
VERTEX
  8
001
  6
PHANTOM
 62
               3
  5
60E
 10
189.2631365065622
 20
727.83849924891479
 30
0.0
  0
VERTEX
  8
001
  6
PHANTOM
 62
               3
  5
60F
 10
189.56984956151669
 20
724.31033988941726
 30
0.0
  0
VERTEX
  8
001
  6
PHANTOM
 62
               3
  5
610
 10
189.95175915054133
 20
720.78286671694002
 30
0.0
  0
VERTEX
  8
001
  6
PHANTOM
 62
               3
  5
611
 10
190.29024153668905
 20
717.25552248612155
 30
0.0
  0
VERTEX
  8
001
  6
PHANTOM
 62
               3
  5
612
 10
190.46667298301264
 20
713.72774995160034
 30
0.0
  0
VERTEX
  8
001
  6
PHANTOM
 62
               3
  5
613
 10
190.40952474361941
 20
710.41230838730962
 30
0.0
  0
VERTEX
  8
001
  6
PHANTOM
 62
               3
  5
614
 10
190.19011532288656
 20
707.09594175423638
 30
0.0
  0
VERTEX
  8
001
  6
PHANTOM
 62
               3
  5
615
 10
189.89396568101932
 20
703.77859503522018
 30
0.0
  0
VERTEX
  8
001
  6
PHANTOM
 62
               3
  5
616
 10
189.60659677822292
 20
700.46021321310036
 30
0.0
  0
VERTEX
  8
001
  6
PHANTOM
 62
               3
  5
617
 10
189.41352957470258
 20
697.14074127071649
 30
0.0
  0
VERTEX
  8
001
  6
PHANTOM
 62
               3
  5
618
 10
189.37368354341154
 20
694.41734722608294
 30
0.0
  0
VERTEX
  8
001
  6
PHANTOM
 62
               3
  5
619
 10
189.4306107962982
 20
691.69333691479119
 30
0.0
  0
VERTEX
  8
001
  6
PHANTOM
 62
               3
  5
61A
 10
189.56011806377342
 20
688.96886440317815
 30
0.0
  0
VERTEX
  8
001
  6
PHANTOM
 62
               3
  5
61B
 10
189.7380120762482
 20
686.2440837575806
 30
0.0
  0
VERTEX
  8
001
  6
PHANTOM
 62
               3
  5
61C
 10
189.94009956413345
 20
683.51914904433556
 30
0.0
  0
SEQEND
  8
001
  5
61D
  0
LINE
  8
001
  6
CENTER
  5
61E
 10
80.179331922187203
 20
720.51914948740296
 30
0.0
 11
192.52275476617788
 21
720.51914948740296
 31
0.0
  0
LINE
  8
001
  6
PHANTOM
 62
               3
  5
61F
 10
142.19399972541362
 20
685.01914948740296
 30
0.0
 11
147.79199972541363
 21
683.51914948740296
 31
0.0
  0
LINE
  8
001
  6
PHANTOM
 62
               3
  5
620
 10
189.94010120354972
 20
683.51912586205037
 30
0.0
 11
147.79199972541366
 21
683.51914948740296
 31
0.0
  0
LINE
  8
001
 62
               3
  5
621
 10
116.92599972541359
 20
745.51914948740318
 30
0.0
 11
116.92599972541359
 21
695.51914948740273
 31
0.0
  0
LINE
  8
001
 62
               3
  5
622
 10
115.19399972541362
 20
696.51912015363916
 30
0.0
 11
116.92599972541359
 21
695.51914948740273
 31
0.0
  0
LINE
  8
001
 62
               3
  5
623
 10
115.19399972541362
 20
744.51917882116675
 30
0.0
 11
116.92599972541359
 21
745.51914948740318
 31
0.0
  0
LINE
  8
001
 62
               3
  5
624
 10
116.92599972541359
 20
755.51912702484037
 30
0.0
 11
116.92599972541359
 21
805.51912702484083
 31
0.0
  0
LINE
  8
001
 62
               3
  5
625
 10
116.92599972541359
 20
755.51912702484037
 30
0.0
 11
115.19399972541362
 21
756.51909769107681
 31
0.0
  0
LINE
  8
001
 62
               3
  5
626
 10
116.92599972541359
 20
805.51912702484083
 30
0.0
 11
115.19399972541362
 21
804.51915635860439
 31
0.0
  0
LINE
  8
001
 62
               3
  5
627
 10
123.9490548176222
 20
755.51912702484037
 30
0.0
 11
116.92599972541356
 21
755.51912702484037
 31
0.0
  0
POLYLINE
  8
001
 62
               3
  5
628
 66
               1
 10
0.0
 20
0.0
 30
0.0
  0
VERTEX
  8
001
 62
               3
  5
629
 10
121.70256423725982
 20
805.51892702484065
 30
0.0
  0
VERTEX
  8
001
 62
               3
  5
62A
 10
122.9699934950232
 20
803.56165504528849
 30
0.0
  0
VERTEX
  8
001
 62
               3
  5
62B
 10
124.07491728239958
 20
801.59918654612068
 30
0.0
  0
VERTEX
  8
001
 62
               3
  5
62C
 10
124.85483012900198
 20
799.62632500772156
 30
0.0
  0
VERTEX
  8
001
 62
               3
  5
62D
 10
125.14722656444341
 20
797.63787391047526
 30
0.0
  0
VERTEX
  8
001
 62
               3
  5
62E
 10
124.78086961856434
 20
795.35794121131119
 30
0.0
  0
VERTEX
  8
001
 62
               3
  5
62F
 10
123.92693492020636
 20
793.05072125933179
 30
0.0
  0
VERTEX
  8
001
 62
               3
  5
630
 10
122.93430640762266
 20
790.71567476025689
 30
0.0
  0
VERTEX
  8
001
 62
               3
  5
631
 10
122.15186801906638
 20
788.35226241980638
 30
0.0
  0
VERTEX
  8
001
 62
               3
  5
632
 10
121.83739867687231
 20
785.55018605016028
 30
0.0
  0
VERTEX
  8
001
 62
               3
  5
633
 10
122.04459609576718
 20
782.71742197397077
 30
0.0
  0
VERTEX
  8
001
 62
               3
  5
634
 10
122.52884252757414
 20
779.86290077355011
 30
0.0
  0
VERTEX
  8
001
 62
               3
  5
635
 10
123.04552022411643
 20
776.99555303121099
 30
0.0
  0
VERTEX
  8
001
 62
               3
  5
636
 10
123.35001143721719
 20
774.12430932926554
 30
0.0
  0
VERTEX
  8
001
 62
               3
  5
637
 10
123.31318057239595
 20
771.77322635737153
 30
0.0
  0
VERTEX
  8
001
 62
               3
  5
638
 10
123.09459926576321
 20
769.42751117547095
 30
0.0
  0
VERTEX
  8
001
 62
               3
  5
639
 10
122.81954942790665
 20
767.08914764682027
 30
0.0
  0
VERTEX
  8
001
 62
               3
  5
63A
 10
122.613312969414
 20
764.76011963467624
 30
0.0
  0
VERTEX
  8
001
 62
               3
  5
63B
 10
122.60117180087293
 20
762.4424110022951
 30
0.0
  0
VERTEX
  8
001
 62
               3
  5
63C
 10
122.8715260709703
 20
760.12719616124696
 30
0.0
  0
VERTEX
  8
001
 62
               3
  5
63D
 10
123.35660749008017
 20
757.82092550106518
 30
0.0
  0
VERTEX
  8
001
 62
               3
  5
63E
 10
123.94905481665342
 20
755.51912702849279
 30
0.0
  0
SEQEND
  8
001
  5
63F
  0
LINE
  8
001
 62
               3
  5
640
 10
116.92599972541359
 20
805.51912702484083
 30
0.0
 11
121.70256423725982
 21
805.51912702484083
 31
0.0
  0
LINE
  8
001
 62
               3
  5
641
 10
115.19399972541362
 20
696.51912015363916
 30
0.0
 11
115.19399972541362
 21
744.51917882116675
 31
0.0
  0
LINE
  8
001
 62
               3
  5
642
 10
115.19399972541362
 20
756.51909769107669
 30
0.0
 11
115.19399972541362
 21
804.51915635860428
 31
0.0
  0
LINE
  8
001
 62
               3
  5
643
 10
83.060025129198152
 20
790.0190861465494
 30
0.0
 11
93.493999725413573
 21
790.0190861465494
 31
0.0
  0
LINE
  8
001
 62
               3
  5
644
 10
83.060025129198152
 20
771.0190861465494
 30
0.0
 11
93.493999725413573
 21
771.0190861465494
 31
0.0
  0
LINE
  8
001
 62
               3
  5
645
 10
82.193999725413619
 20
772.5190861465494
 30
0.0
 11
82.193999725413619
 21
788.5190861465494
 31
0.0
  0
LINE
  8
001
 62
               3
  5
646
 10
83.060025129198152
 20
730.0190861465494
 30
0.0
 11
93.493999725413573
 21
730.0190861465494
 31
0.0
  0
LINE
  8
001
 62
               3
  5
647
 10
83.060025129198152
 20
711.0190861465494
 30
0.0
 11
93.493999725413573
 21
711.0190861465494
 31
0.0
  0
LINE
  8
001
 62
               3
  5
648
 10
82.193999725413619
 20
712.5190861465494
 30
0.0
 11
82.193999725413619
 21
728.5190861465494
 31
0.0
  0
LINE
  8
001
 62
               3
  5
649
 10
93.493999725413573
 20
711.0190861465494
 30
0.0
 11
93.493999725413573
 21
730.0190861465494
 31
0.0
  0
LINE
  8
001
 62
               3
  5
64A
 10
82.193999725413619
 20
728.5190861465494
 30
0.0
 11
83.060025129198152
 21
730.0190861465494
 31
0.0
  0
LINE
  8
001
 62
               3
  5
64B
 10
82.193999725413619
 20
712.5190861465494
 30
0.0
 11
83.060025129198152
 21
711.0190861465494
 31
0.0
  0
LINE
  8
001
 62
               3
  5
64C
 10
82.643999725413892
 20
725.7589817351577
 30
0.0
 11
89.993999725413573
 21
725.7589817351577
 31
0.0
  0
LINE
  8
001
 62
               3
  5
64D
 10
82.643999725413892
 20
724.76172683366849
 30
0.0
 11
89.993999725413573
 21
724.76172683366849
 31
0.0
  0
LINE
  8
001
 62
               3
  5
64E
 10
82.643999725413892
 20
716.27644545943031
 30
0.0
 11
89.993999725413573
 21
716.27644545943031
 31
0.0
  0
LINE
  8
001
 62
               3
  5
64F
 10
82.643999725413892
 20
715.27919055794109
 30
0.0
 11
89.993999725413573
 21
715.27919055794109
 31
0.0
  0
LINE
  8
001
 62
               3
  5
650
 10
82.643999725413892
 20
724.76172683366849
 30
0.0
 11
82.643999725413892
 21
725.7589817351577
 31
0.0
  0
LINE
  8
001
 62
               3
  5
651
 10
82.643999725413892
 20
716.27644545943031
 30
0.0
 11
82.643999725413892
 21
715.27919055794109
 31
0.0
  0
LINE
  8
001
 62
               3
  5
652
 10
93.493999725413573
 20
727.5190861465494
 30
0.0
 11
115.19399972541362
 21
727.5190861465494
 31
0.0
  0
LINE
  8
001
 62
               3
  5
653
 10
93.493999725413573
 20
713.5190861465494
 30
0.0
 11
115.19399972541362
 21
713.5190861465494
 31
0.0
  0
LINE
  8
001
 62
               3
  5
654
 10
93.493999725413573
 20
727.11908614654885
 30
0.0
 11
98.193999725413619
 21
727.11908614654885
 31
0.0
  0
LINE
  8
001
 62
               3
  5
655
 10
93.493999725413573
 20
713.91908614654903
 30
0.0
 11
98.193999725413619
 21
713.91908614654903
 31
0.0
  0
LINE
  8
001
 62
               3
  5
656
 10
98.193999725413619
 20
713.91908614654903
 30
0.0
 11
98.193999725413619
 21
727.11908614654885
 31
0.0
  0
LINE
  8
001
 62
               3
  5
657
 10
98.193999725413619
 20
727.11908614654885
 30
0.0
 11
98.886820048441109
 21
727.5190861465494
 31
0.0
  0
LINE
  8
001
 62
               3
  5
658
 10
98.193999725413619
 20
713.91908614654903
 30
0.0
 11
98.886820048441109
 21
713.5190861465494
 31
0.0
  0
LINE
  8
001
 62
               3
  5
659
 10
103.19399972541362
 20
724.12463742201317
 30
0.0
 11
110.19399972541362
 21
724.12463742201317
 31
0.0
  0
LINE
  8
001
 62
               3
  5
65A
 10
103.19399972541362
 20
716.91353487108563
 30
0.0
 11
110.19399972541362
 21
716.91353487108563
 31
0.0
  0
LINE
  8
001
 62
               3
  5
65B
 10
103.19399972541362
 20
716.91353487108563
 30
0.0
 11
103.19399972541362
 21
724.12463742201317
 31
0.0
  0
LINE
  8
001
 62
               3
  5
65C
 10
110.19399972541362
 20
716.91353487108563
 30
0.0
 11
110.19399972541362
 21
724.12463742201317
 31
0.0
  0
LINE
  8
001
 62
               3
  5
65D
 10
110.19399972541362
 20
724.12463742201317
 30
0.0
 11
103.19399972541362
 21
716.91353487108563
 31
0.0
  0
LINE
  8
001
 62
               3
  5
65E
 10
103.19399972541362
 20
724.12463742201317
 30
0.0
 11
110.19399972541362
 21
716.91353487108563
 31
0.0
  0
LINE
  8
001
 62
               3
  5
65F
 10
89.993999725413573
 20
729.98988391731609
 30
0.0
 11
82.643999725413892
 21
725.7589817351577
 31
0.0
  0
LINE
  8
001
 62
               3
  5
660
 10
83.060025129198152
 20
730.0190861465494
 30
0.0
 11
89.993999725413573
 21
725.7589817351577
 31
0.0
  0
LINE
  8
001
 62
               3
  5
661
 10
89.993999725413573
 20
724.76172683366849
 30
0.0
 11
82.643999725413892
 21
716.27644545943031
 31
0.0
  0
LINE
  8
001
 62
               3
  5
662
 10
82.643999725413892
 20
724.76172683366849
 30
0.0
 11
89.993999725413573
 21
716.2772118729622
 31
0.0
  0
LINE
  8
001
 62
               3
  5
663
 10
89.993999725413573
 20
715.27919055794109
 30
0.0
 11
83.060025129198152
 21
711.0190861465494
 31
0.0
  0
LINE
  8
001
 62
               3
  5
664
 10
82.643999725413892
 20
715.27919055794109
 30
0.0
 11
89.993999725413573
 21
711.0482883757827
 31
0.0
  0
LINE
  8
001
  6
DASHED
 62
               3
  5
665
 10
105.19399972541362
 20
716.5190861465494
 30
0.0
 11
105.19399972541362
 21
724.5190861465494
 31
0.0
  0
LINE
  8
001
  6
DASHED
 62
               3
  5
666
 10
100.85745187385112
 20
724.5190861465494
 30
0.0
 11
105.19399972541362
 21
724.5190861465494
 31
0.0
  0
LINE
  8
001
  6
DASHED
 62
               3
  5
667
 10
100.67825265510112
 20
716.5190861465494
 30
0.0
 11
105.19399972541362
 21
716.5190861465494
 31
0.0
  0
LINE
  8
001
  6
DASHED
 62
               3
  5
668
 10
105.19399972541362
 20
724.5190861465494
 30
0.0
 11
107.50340080217222
 21
720.5190861465494
 31
0.0
  0
LINE
  8
001
  6
DASHED
 62
               3
  5
669
 10
107.50340080217222
 20
720.5190861465494
 30
0.0
 11
105.19399972541362
 21
716.5190861465494
 31
0.0
  0
ARC
  8
001
 62
               3
  5
66A
 10
75.607403045726073
 20
720.52289626726224
 30
0.0
 40
15.000000000000002
 50
343.57005981055613
 51
16.429940189443876
  0
ARC
  8
001
 62
               3
  5
66B
 10
85.463561923031534
 20
727.8744328262369
 30
0.0
 40
4.9999999999999991
 50
334.97015980694908
 51
25.029840193050916
  0
ARC
  8
001
 62
               3
  5
66C
 10
87.174437527795476
 20
727.8744328262369
 30
0.0
 40
4.9999999999999991
 50
185.06994381571999
 51
205.02984019305089
  0
ARC
  8
001
 62
               3
  5
66D
 10
97.030596405100937
 20
720.52289626726224
 30
0.0
 40
15.000000000000002
 50
163.57005981055622
 51
171.53518482641536
  0
ARC
  8
001
 62
               3
  5
66E
 10
85.463561923031534
 20
713.1637394668619
 30
0.0
 40
4.9999999999999991
 50
334.97015980694908
 51
25.029840193050916
  0
ARC
  8
001
 62
               3
  5
66F
 10
87.174437527795476
 20
713.1637394668619
 30
0.0
 40
5.0
 50
154.97015980694911
 51
174.93005618428001
  0
ARC
  8
001
 62
               3
  5
670
 10
97.030596405100937
 20
720.51527602583656
 30
0.0
 40
14.999999999999996
 50
188.46481517358455
 51
196.42994018944378
  0
ARC
  8
001
 62
               3
  5
671
 10
101.94778847417831
 20
720.5190861465494
 30
0.0
 40
8.9999999999999964
 50
336.38325618884153
 51
23.616743811158365
  0
ARC
  8
001
 62
               3
  5
672
 10
111.44021097664893
 20
720.5190861465494
 30
0.0
 40
8.9999999999999964
 50
156.38325618884156
 51
203.61674381115836
  0
LINE
  8
001
 62
               3
  5
673
 10
93.493999725413573
 20
771.0190861465494
 30
0.0
 11
93.493999725413573
 21
790.0190861465494
 31
0.0
  0
LINE
  8
001
 62
               3
  5
674
 10
82.193999725413619
 20
788.5190861465494
 30
0.0
 11
83.060025129198152
 21
790.0190861465494
 31
0.0
  0
LINE
  8
001
 62
               3
  5
675
 10
82.193999725413619
 20
772.5190861465494
 30
0.0
 11
83.060025129198152
 21
771.0190861465494
 31
0.0
  0
LINE
  8
001
 62
               3
  5
676
 10
82.643999725413892
 20
785.7589817351577
 30
0.0
 11
89.993999725413573
 21
785.7589817351577
 31
0.0
  0
LINE
  8
001
 62
               3
  5
677
 10
82.643999725413892
 20
784.76172683366849
 30
0.0
 11
89.993999725413573
 21
784.76172683366849
 31
0.0
  0
LINE
  8
001
 62
               3
  5
678
 10
82.643999725413892
 20
776.27644545943031
 30
0.0
 11
89.993999725413573
 21
776.27644545943031
 31
0.0
  0
LINE
  8
001
 62
               3
  5
679
 10
82.643999725413892
 20
775.27919055794109
 30
0.0
 11
89.993999725413573
 21
775.27919055794109
 31
0.0
  0
LINE
  8
001
 62
               3
  5
67A
 10
82.643999725413892
 20
784.76172683366849
 30
0.0
 11
82.643999725413892
 21
785.7589817351577
 31
0.0
  0
LINE
  8
001
 62
               3
  5
67B
 10
82.643999725413892
 20
776.27644545943031
 30
0.0
 11
82.643999725413892
 21
775.27919055794109
 31
0.0
  0
LINE
  8
001
 62
               3
  5
67C
 10
93.493999725413573
 20
787.11908614654885
 30
0.0
 11
98.193999725413619
 21
787.11908614654885
 31
0.0
  0
LINE
  8
001
 62
               3
  5
67D
 10
93.493999725413573
 20
773.91908614654903
 30
0.0
 11
98.193999725413619
 21
773.91908614654903
 31
0.0
  0
LINE
  8
001
 62
               3
  5
67E
 10
98.193999725413619
 20
773.91908614654903
 30
0.0
 11
98.193999725413619
 21
787.11908614654885
 31
0.0
  0
LINE
  8
001
 62
               3
  5
67F
 10
98.193999725413619
 20
787.11908614654885
 30
0.0
 11
98.886820048441109
 21
787.5190861465494
 31
0.0
  0
LINE
  8
001
 62
               3
  5
680
 10
98.193999725413619
 20
773.91908614654903
 30
0.0
 11
98.886820048441109
 21
773.5190861465494
 31
0.0
  0
LINE
  8
001
 62
               3
  5
681
 10
89.993999725413573
 20
789.98988391731609
 30
0.0
 11
82.643999725413892
 21
785.7589817351577
 31
0.0
  0
LINE
  8
001
 62
               3
  5
682
 10
83.060025129198152
 20
790.0190861465494
 30
0.0
 11
89.993999725413573
 21
785.7589817351577
 31
0.0
  0
LINE
  8
001
 62
               3
  5
683
 10
89.993999725413573
 20
784.76172683366849
 30
0.0
 11
82.643999725413892
 21
776.27644545943031
 31
0.0
  0
LINE
  8
001
 62
               3
  5
684
 10
82.643999725413892
 20
784.76172683366849
 30
0.0
 11
89.993999725413573
 21
776.2772118729622
 31
0.0
  0
LINE
  8
001
 62
               3
  5
685
 10
89.993999725413573
 20
775.27919055794109
 30
0.0
 11
83.060025129198152
 21
771.0190861465494
 31
0.0
  0
LINE
  8
001
 62
               3
  5
686
 10
82.643999725413892
 20
775.27919055794109
 30
0.0
 11
89.993999725413573
 21
771.0482883757827
 31
0.0
  0
ARC
  8
001
 62
               3
  5
687
 10
75.607403045726073
 20
780.52289626726224
 30
0.0
 40
15.000000000000002
 50
343.57005981055613
 51
16.429940189443876
  0
ARC
  8
001
 62
               3
  5
688
 10
85.463561923031534
 20
787.8744328262369
 30
0.0
 40
4.9999999999999991
 50
334.97015980694908
 51
25.029840193050916
  0
ARC
  8
001
 62
               3
  5
689
 10
87.174437527795476
 20
787.8744328262369
 30
0.0
 40
4.9999999999999991
 50
185.06994381571999
 51
205.02984019305089
  0
ARC
  8
001
 62
               3
  5
68A
 10
97.030596405100937
 20
780.52289626726224
 30
0.0
 40
15.000000000000002
 50
163.57005981055622
 51
171.53518482641536
  0
ARC
  8
001
 62
               3
  5
68B
 10
85.463561923031534
 20
773.1637394668619
 30
0.0
 40
4.9999999999999991
 50
334.97015980694908
 51
25.029840193050916
  0
ARC
  8
001
 62
               3
  5
68C
 10
87.174437527795476
 20
773.1637394668619
 30
0.0
 40
5.0
 50
154.97015980694911
 51
174.93005618428001
  0
ARC
  8
001
 62
               3
  5
68D
 10
97.030596405100937
 20
780.51527602583656
 30
0.0
 40
14.999999999999996
 50
188.46481517358455
 51
196.42994018944378
  0
LINE
  8
001
 62
               3
  5
68E
 10
103.19399972541362
 20
787.5190861465494
 30
0.0
 11
103.19399972541362
 21
786.51911704148165
 31
0.0
  0
LINE
  8
001
 62
               3
  5
68F
 10
111.19399972541362
 20
787.5190861465494
 30
0.0
 11
111.19399972541362
 21
786.51912369705565
 31
0.0
  0
LINE
  8
001
 62
               3
  5
690
 10
103.19399972541362
 20
786.51911704148165
 30
0.0
 11
111.19399972541362
 21
786.51912369705565
 31
0.0
  0
LINE
  8
001
 62
               3
  5
691
 10
103.19399972541362
 20
787.5190861465494
 30
0.0
 11
93.493999725413573
 21
787.5190861465494
 31
0.0
  0
LINE
  8
001
 62
               3
  5
692
 10
111.19399972541362
 20
787.5190861465494
 30
0.0
 11
115.19399972541362
 21
787.5190861465494
 31
0.0
  0
LINE
  8
001
 62
               3
  5
693
 10
103.19401137261684
 20
773.51914793641936
 30
0.0
 11
103.19400970877474
 21
774.51911704148574
 31
0.0
  0
LINE
  8
001
 62
               3
  5
694
 10
111.1940113726057
 20
773.51916124756735
 30
0.0
 11
111.19400970877467
 21
774.51912369705974
 31
0.0
  0
LINE
  8
001
 62
               3
  5
695
 10
103.19400970877473
 20
774.51911704148574
 30
0.0
 11
111.19400970877473
 21
774.51912369705974
 31
0.0
  0
LINE
  8
001
 62
               3
  5
696
 10
103.19401054069579
 20
773.5190861465494
 30
0.0
 11
93.493999725413602
 21
773.5190861465494
 31
0.0
  0
LINE
  8
001
 62
               3
  5
697
 10
111.1940113726057
 20
773.5190861465494
 30
0.0
 11
115.19399972541359
 21
773.5190861465494
 31
0.0
  0
LINE
  8
001
  6
CENTER
  5
698
 10
125.00134934322932
 20
780.5191351840333
 30
0.0
 11
79.823980544942827
 21
780.51909759886792
 31
0.0
  0
LINE
  8
001
  6
PHANTOM
  5
699
 10
142.19399972541362
 20
111.20480985301788
 30
0.0
 11
142.19399972541362
 21
685.01914948740296
 31
0.0
  0
TEXT
  8
001
  5
69A
 10
17.366045595544882
 20
291.37478655273583
 30
0.0
 40
10.0
  1
BILZ16
 41
0.5624999296875088
  0
TEXT
  8
001
  5
69B
 10
13.462698756696788
 20
395.14985073320082
 30
0.0
 40
10.0
  1
BILZ20
 41
0.5454545454545454
  0
TEXT
  8
001
  5
69C
 10
2.0046107161021425
 20
497.87750751377212
 30
0.0
 40
10.0
  1
BILZ25
 41
0.5294117335640156
  0
TEXT
  8
001
  5
69D
 10
37.77927740689114
 20
196.85924784529823
 30
0.0
 40
10.0
  1
KH-22A
 41
0.5
  0
TEXT
  8
001
  5
69E
 10
52.727123975724851
 20
98.071073129093406
 30
0.0
 40
10.0
  1
KH-16A
 41
0.5294117335640156
  0
TEXT
  8
001
  5
69F
 10
44.352076707376042
 20
612.91662488823204
 30
0.0
 40
10.0
  1
ER20
 41
0.5217391758034066
  0
TEXT
  8
001
  5
6A0
 10
81.79178840132397
 20
735.31682000714068
 30
0.0
 40
10.0
  1
ER11
 41
0.599999880000024
  0
TEXT
  8
001
 62
               3
  5
6A1
 10
225.27291951599841
 20
518.06487921795508
 30
0.0
 40
6.0
  1
　　　改良のため、予告なく変更することがあります。
 41
0.8399999803966946
  0
TEXT
  8
001
 62
               3
  5
6A2
 10
225.27291951599841
 20
538.06487921795508
 30
0.0
 40
6.0
  1
注記：図形データは簡略化されているため、カタログ記載寸法
 41
0.8399999803966946
  0
TEXT
  8
001
 62
               3
  5
6A3
 10
225.27291951599841
 20
528.06487921795508
 30
0.0
 40
6.0
  1
　　　以外は参考としてください。
 41
0.8399999803966946
  0
LINE
  8
001
  6
CENTER
  5
6A4
 10
733.19389972541364
 20
1000.4299232809851
 30
0.0
 11
391.19389972541364
 21
1000.4299232809851
 31
0.0
  0
LINE
  8
001
 62
               3
  5
6A5
 10
401.19389972541364
 20
1039.4299232809851
 30
0.0
 11
401.19389972541364
 21
961.42992328098512
 31
0.0
  0
LINE
  8
001
  6
PHANTOM
 62
               3
  5
6A6
 10
354.19379972541367
 20
943.42992328098512
 30
0.0
 11
389.19379972541367
 21
943.42992328098512
 31
0.0
  0
LINE
  8
001
  6
PHANTOM
 62
               3
  5
6A7
 10
354.19379972541367
 20
1057.4299232809849
 30
0.0
 11
389.19379972541367
 21
1057.4299232809849
 31
0.0
  0
LINE
  8
001
  6
PHANTOM
 62
               3
  5
6A8
 10
336.19389972541364
 20
1039.4299232809851
 30
0.0
 11
336.19389972541364
 21
961.42992328098512
 31
0.0
  0
ARC
  8
001
 62
               3
  5
6A9
 10
419.19389972541364
 20
1039.4299232809851
 30
0.0
 40
18.0
 50
90.0
 51
180.0
  0
ARC
  8
001
 62
               3
  5
6AA
 10
419.19389972541364
 20
961.42992328098512
 30
0.0
 40
18.0
 50
180.0
 51
270.0
  0
ARC
  8
001
  6
PHANTOM
 62
               3
  5
6AB
 10
354.19389972541364
 20
961.42992328098512
 30
0.0
 40
18.0
 50
180.0
 51
270.0
  0
ARC
  8
001
  6
PHANTOM
 62
               3
  5
6AC
 10
354.19389972541364
 20
1039.4299232809851
 30
0.0
 40
18.0
 50
90.0
 51
180.0
  0
TEXT
  8
001
  5
6AD
 10
348.46986748384887
 20
1009.125270080194
 30
0.0
 40
10.0
  1
6POLES
 50
90.000002504478161
 41
0.5
  0
TEXT
  8
001
  5
6AE
 10
413.46986748384887
 20
1009.1252700801939
 30
0.0
 40
10.0
  1
2POLES
 50
90.000002504478161
 41
0.5
  0
LINE
  8
001
  6
PHANTOM
 62
               3
  5
6AF
 10
354.19389972541364
 20
1153.6392224470667
 30
0.0
 11
389.19389972541364
 21
1153.6392224470667
 31
0.0
  0
LINE
  8
001
  6
PHANTOM
 62
               3
  5
6B0
 10
354.19389972541364
 20
1267.6392224470667
 30
0.0
 11
389.19389972541364
 21
1267.6391224470667
 31
0.0
  0
LINE
  8
001
  6
PHANTOM
 62
               3
  5
6B1
 10
336.19389972541364
 20
1249.6393224470667
 30
0.0
 11
336.19389972541364
 21
1171.6393224470667
 31
0.0
  0
ARC
  8
001
  6
PHANTOM
 62
               3
  5
6B2
 10
354.19389972541364
 20
1171.6393224470667
 30
0.0
 40
18.0
 50
180.0
 51
270.0
  0
ARC
  8
001
  6
PHANTOM
 62
               3
  5
6B3
 10
354.19389972541364
 20
1249.6393224470667
 30
0.0
 40
18.0
 50
90.0
 51
180.0
  0
ARC
  8
001
 62
               3
  5
6B4
 10
419.19389972541364
 20
1249.6393224470667
 30
0.0
 40
18.0
 50
90.0
 51
180.0
  0
LINE
  8
001
 62
               3
  5
6B5
 10
401.19389972541364
 20
1249.6393224470667
 30
0.0
 11
401.19389972541364
 21
1171.6393224470667
 31
0.0
  0
LINE
  8
001
 62
               3
  5
6B6
 10
399.19399972541373
 20
1181.6391216578018
 30
0.0
 11
401.19389972541364
 21
1181.6391224470615
 31
0.0
  0
LINE
  8
001
  5
6B7
 10
401.19389972541364
 20
1180.6391216578018
 30
0.0
 11
399.19399972541373
 21
1180.6391216578018
 31
0.0
  0
LINE
  8
001
  5
6B8
 10
401.19389972541364
 20
1181.6391224470615
 30
0.0
 11
399.19399972541373
 21
1181.6391216578018
 31
0.0
  0
ARC
  8
001
 62
               3
  5
6B9
 10
419.19389972541364
 20
1171.6393224470667
 30
0.0
 40
18.0
 50
180.0
 51
270.0
  0
LINE
  8
001
 62
               3
  5
6BA
 10
419.19389972541364
 20
1267.6393224470667
 30
0.0
 11
541.19389972541364
 21
1267.6393224470667
 31
0.0
  0
LINE
  8
001
 62
               3
  5
6BB
 10
419.19389972541364
 20
1153.6393224470667
 30
0.0
 11
541.19389972541364
 21
1153.6393224470667
 31
0.0
  0
LINE
  8
001
 62
               3
  5
6BC
 10
541.19409972541382
 20
1156.6393224470667
 30
0.0
 11
666.19389972541364
 21
1156.6393224470667
 31
0.0
  0
LINE
  8
001
 62
               3
  5
6BD
 10
541.19409972541382
 20
1264.6393224470667
 30
0.0
 11
666.19389972541364
 21
1264.6393224470667
 31
0.0
  0
LINE
  8
001
 62
               3
  5
6BE
 10
541.19389972541364
 20
1267.6393224470667
 30
0.0
 11
541.19389972541364
 21
1153.6393224470667
 31
0.0
  0
LINE
  8
001
 62
               3
  5
6BF
 10
419.19389972541364
 20
1057.4299232809849
 30
0.0
 11
541.19389972541364
 21
1057.4299232809849
 31
0.0
  0
LINE
  8
001
 62
               3
  5
6C0
 10
541.19409972541382
 20
947.42992328098512
 30
0.0
 11
666.19389972541364
 21
947.4300232809851
 31
0.0
  0
LINE
  8
001
 62
               3
  5
6C1
 10
419.19389972541364
 20
943.42992328098512
 30
0.0
 11
541.19389972541364
 21
943.42992328098512
 31
0.0
  0
LINE
  8
001
 62
               3
  5
6C2
 10
541.19409972541382
 20
1053.4299232809851
 30
0.0
 11
666.19389972541364
 21
1053.4299232809851
 31
0.0
  0
LINE
  8
001
 62
               3
  5
6C3
 10
541.19389972541364
 20
1057.4299232809849
 30
0.0
 11
541.19389972541364
 21
943.42992328098489
 31
0.0
  0
TEXT
  8
001
  5
6C4
 10
-61.740916484044675
 20
748.23996426388942
 30
0.0
 40
10.0
  1
ES3P-3075LL(A),3060LL(A)
 41
0.553846145325444
  0
TEXT
  8
001
  5
6C5
 10
-61.740916484044675
 20
735.73996426388942
 30
0.0
 40
10.0
  1
ES3P-6049LL(A)
 41
0.531645556160872
  0
TEXT
  8
001
  5
6C6
 10
-145.39747351946056
 20
623.07727547143293
 30
0.0
 40
10.0
  1
ES3P-6034LL(A),1326LL(A),1318LL(A)
 41
0.5698323512999015
  0
TEXT
  8
001
  5
6C7
 10
-145.39747351946056
 20
610.57727547143293
 30
0.0
 40
10.0
  1
ES3P-1314LL(A),1310LL(A),1307LL(A)
 41
0.5862068359096376
  0
TEXT
  8
001
  5
6C8
 10
-145.39747351946056
 20
598.07727547143293
 30
0.0
 40
10.0
  1
ES3P-1306LL(A),1305LL(A)
 41
0.5669290981461985
  0
TEXT
  8
001
  5
6C9
 10
-180.5563762814196
 20
483.97031236976892
 30
0.0
 40
10.0
  1
ES3P-6034LL(A),1326LL(A),1318LL(A)
 41
0.5698323512999015
  0
TEXT
  8
001
  5
6CA
 10
-180.5563762814196
 20
471.47031236976892
 30
0.0
 40
10.0
  1
ES3P-1314LL(A),1310LL(A),1307LL(A)
 41
0.5862068359096376
  0
TEXT
  8
001
  5
6CB
 10
-180.5563762814196
 20
458.97031236976892
 30
0.0
 40
10.0
  1
ES3P-1306LL(A),1305LL(A)
 41
0.5669290981461985
  0
TEXT
  8
001
  5
6CC
 10
-180.5563762814196
 20
383.97031236976892
 30
0.0
 40
10.0
  1
ES3P-6034LL(A),1326LL(A),1318LL(A)
 41
0.5698323512999015
  0
TEXT
  8
001
  5
6CD
 10
-180.5563762814196
 20
371.47031236976892
 30
0.0
 40
10.0
  1
ES3P-1314LL(A),1310LL(A),1307LL(A)
 41
0.5862068359096376
  0
TEXT
  8
001
  5
6CE
 10
-180.5563762814196
 20
358.97031236976892
 30
0.0
 40
10.0
  1
ES3P-1306LL(A),1305LL(A)
 41
0.5669290981461985
  0
TEXT
  8
001
  5
6CF
 10
-180.5563762814196
 20
283.97031236976892
 30
0.0
 40
10.0
  1
ES3P-6034LL(A),1326LL(A),1318LL(A)
 41
0.5698323512999015
  0
TEXT
  8
001
  5
6D0
 10
-180.5563762814196
 20
271.47031236976892
 30
0.0
 40
10.0
  1
ES3P-1314LL(A),1310LL(A),1307LL(A)
 41
0.5862068359096376
  0
TEXT
  8
001
  5
6D1
 10
-180.5563762814196
 20
258.97031236976892
 30
0.0
 40
10.0
  1
ES3P-1306LL(A),1305LL(A)
 41
0.5669290981461985
  0
TEXT
  8
001
  5
6D2
 10
-180.5563762814196
 20
184.94195354158711
 30
0.0
 40
10.0
  1
ES3P-6034LL(A),1326LL(A),1318LL(A)
 41
0.5698323512999015
  0
TEXT
  8
001
  5
6D3
 10
-180.5563762814196
 20
172.44195354158711
 30
0.0
 40
10.0
  1
ES3P-1314LL(A),1310LL(A),1307LL(A)
 41
0.5862068359096376
  0
TEXT
  8
001
  5
6D4
 10
-180.5563762814196
 20
159.94195354158711
 30
0.0
 40
10.0
  1
ES3P-1306LL(A),1305LL(A)
 41
0.5669290981461985
  0
TEXT
  8
001
  5
6D5
 10
-180.5563762814196
 20
84.941953541587111
 30
0.0
 40
10.0
  1
ES3P-6034LL(A),1326LL(A),1318LL(A)
 41
0.5698323512999015
  0
TEXT
  8
001
  5
6D6
 10
-180.5563762814196
 20
72.441953541587111
 30
0.0
 40
10.0
  1
ES3P-1314LL(A),1310LL(A),1307LL(A)
 41
0.5862068359096376
  0
TEXT
  8
001
  5
6D7
 10
-180.5563762814196
 20
59.941953541587111
 30
0.0
 40
10.0
  1
ES3P-1306LL(A),1305LL(A)
 41
0.5669290981461985
  0
LINE
  8
001
  6
CENTER
  5
6D8
 10
911.03215321517087
 20
860.42992328098512
 30
0.0
 11
812.0047869639975
 21
860.42992328098512
 31
0.0
  0
TEXT
  8
001
  5
6D9
 10
571.23043235771399
 20
682.01699236372087
 30
0.0
 40
10.0
  1
(MOTOR TYPE)
 41
0.5487804543426552
  0
TEXT
  8
001
  5
6DA
 10
571.23043235771399
 20
669.51699236372087
 30
0.0
 40
10.0
  1
2POLES
 41
0.5
  0
TEXT
  8
001
  5
6DB
 10
571.23043235771399
 20
657.01699236372087
 30
0.0
 40
10.0
  1
ES3P-3075LL(A),3060LL(A)
 41
0.553846145325444
  0
TEXT
  8
001
  5
6DC
 10
571.23043235771399
 20
644.51699236372087
 30
0.0
 40
10.0
  1
ES3P-6049LL(A),6034LL(A)
 41
0.5496183038284487
  0
TEXT
  8
001
  5
6DD
 10
571.23043235771399
 20
632.01699236372087
 30
0.0
 40
10.0
  1
ES3P-1326LL(A),1318LL(A)
 41
0.5669290713621495
  0
TEXT
  8
001
  5
6DE
 10
571.23043235771399
 20
619.51699236372087
 30
0.0
 40
10.0
  1
6POLES
 41
0.5
  0
TEXT
  8
001
  5
6DF
 10
571.23043235771399
 20
607.01699236372087
 30
0.0
 40
10.0
  1
ES3P-1314LL(A),1310LL(A),1307LL(A)
 41
0.5862068359096376
  0
TEXT
  8
001
  5
6E0
 10
571.23043235771399
 20
594.51699236372087
 30
0.0
 40
10.0
  1
ES3P-1306LL(A),1305LL(A)
 41
0.5669290981461985
  0
TEXT
  8
001
  5
6E1
 10
571.23043235771399
 20
582.01699236372087
 30
0.0
 40
10.0
  1
(2005/02/28)
 41
0.5538461708875745
  0
ENDSEC
  0
EOF
