  0
SECTION
  2
HEADER
  9
$EXTMIN
 10
            0.0000000000000000
 20
            0.0000000000000000
  9
$EXTMAX
 10
          594.0000000000000000
 20
          420.0000000000000000
  9
$LIMMIN
 10
            0.0000000000000000
 20
            0.0000000000000000
  9
$LIMMAX
 10
          594.0000000000000000
 20
          420.0000000000000000
  0
ENDSEC
  0
SECTION
  2
TABLES
  0
TABLE
  2
LTYPE
 70
     4
  0
LTYPE
  2
CONTINUOUS
 70
    64
  3
CONTINUOUS
 72
    65
 73
     0
 40
            0.0000000000000000
  0
LTYPE
  2
DASHED
 70
    64
  3
DASHED
 72
    65
 73
     2
 40
            3.0000000000000000
 49
            2.0000000000000000
 49
           -1.0000000000000000
  0
LTYPE
  2
CENTER
 70
    64
  3
CENTER
 72
    65
 73
     4
 40
           12.0000000000000000
 49
            9.0000000000000000
 49
           -1.0000000000000000
 49
            1.0000000000000000
 49
           -1.0000000000000000
  0
LTYPE
  2
PHANTOM
 70
    64
  3
PHANTOM
 72
    65
 73
     6
 40
           20.0000000000000000
 49
           15.0000000000000000
 49
           -1.0000000000000000
 49
            1.0000000000000000
 49
           -1.0000000000000000
 49
            1.0000000000000000
 49
           -1.0000000000000000
  0
ENDTAB
  0
TABLE
  2
LAYER
 70
     1
  0
LAYER
  2
1
 70
    64
 62
     7
  6
CONTINUOUS
  0
ENDTAB
  0
TABLE
  2
STYLE
 70
     1
  0
STYLE
  2
STANDARD
 70
    64
 40
            0.0000000000000000
 41
            1.0000000000000000
 50
            0.0000000000000000
 71
     0
 42
            0.2500000000000000
  3
TXT
  4
BIGFONT
  0
ENDTAB
  0
ENDSEC
  0
SECTION
  2
BLOCKS
  0
ENDSEC
  0
SECTION
  2
ENTITIES
  0
LINE
  8
1
  6
CENTER
 62
     1
 10
           77.3207397460937500
 20
          119.8113250732421875
 11
          278.0754699707030682
 21
          119.8113250732421875
  0
LINE
  8
1
 62
     3
 10
           82.9811248779296875
 20
           39.8113250732421875
 11
          172.9811248779296875
 21
           39.8113250732421875
  0
LINE
  8
1
 62
     3
 10
           85.9811248779296875
 20
          157.8113250732421875
 11
          269.9811248779296875
 21
          157.8113250732421875
  0
LINE
  8
1
 62
     3
 10
          100.7849724552230555
 20
          187.8113250732421875
 11
          255.1772773006363195
 21
          187.8113250732421875
  0
LINE
  8
1
 62
     3
 10
           82.9811248779296875
 20
           39.8113250732421875
 11
           82.9811248779296875
 21
          118.3113250732421875
  0
LINE
  8
1
 62
     3
 10
          272.9811248779296875
 20
           39.8113250732421875
 11
          272.9811248779296875
 21
          118.3113250732421875
  0
LINE
  8
1
 62
     3
 10
           82.9811248779296875
 20
          234.6000061035156250
 11
           82.9811248779296875
 21
          378.6000061035156250
  0
LINE
  8
1
 62
     3
 10
          272.9811248779296875
 20
          234.6000061035156250
 11
          272.9811248779296875
 21
          378.6000061035156250
  0
LINE
  8
1
  6
CENTER
 62
     1
 10
          353.6226196289062500
 20
          119.8113250732421875
 11
          515.2830200195312500
 21
          119.8113250732421875
  0
LINE
  8
1
 62
     3
 10
           83.9811248779296875
 20
           59.8113250732421875
 11
          148.9811248779296875
 21
           59.8113250732421875
  0
LINE
  8
1
 62
     3
 10
           82.9811248779296875
 20
           89.3113250732421875
 11
          100.9811248779296875
 21
           89.3113250732421875
  0
LINE
  8
1
 62
     3
 10
          153.9811248779296875
 20
           64.8113250732421875
 11
          153.9811248779296875
 21
           76.6464028037025287
  0
LINE
  8
1
 62
     3
 10
          201.9811248779296875
 20
           64.8113250732421875
 11
          201.9811248779296875
 21
           76.6847848582013683
  0
LINE
  8
1
 62
     3
 10
          100.9811248779296875
 20
           91.8735596849659828
 11
          100.9811248779296875
 21
          118.3113250732421875
  0
LINE
  8
1
 62
     3
 10
          254.9811248779296875
 20
           91.8755518145713523
 11
          254.9811248779296875
 21
          118.3113250732421875
  0
LINE
  8
1
 62
     3
 10
          103.5118129795258568
 20
           88.9104960099808181
 11
          149.7633113752693816
 21
           81.5848422620111364
  0
LINE
  8
1
 62
     3
 10
          206.2027297150773961
 20
           81.6238233243856826
 11
          252.4481619756410566
 21
           88.9121287348607723
  0
LINE
  8
1
 62
     3
 10
          254.9811248779296875
 20
           89.3113250732421875
 11
          272.9811248779296875
 21
           89.3113250732421875
  0
LINE
  8
1
 62
     3
 10
           99.2849724552230555
 20
          187.4094012845955035
 11
           84.4811248779296875
 21
          178.8623959008029374
  0
LINE
  8
1
 62
     3
 10
          256.6772773006363195
 20
          187.4094012845955035
 11
          271.4811248779296875
 21
          178.8623959008029374
  0
LINE
  8
1
 62
     3
 10
           85.9811248779296875
 20
          231.6000061035156250
 11
          269.9811248779296875
 21
          231.6000061035156250
  0
LINE
  8
1
  6
CENTER
 62
     1
 10
           77.3207550048828125
 20
          306.6000061035156250
 11
          281.2453002929687500
 21
          306.6000061035156250
  0
LINE
  8
1
 62
     3
 10
           85.9811248779296875
 20
          381.6000061035156250
 11
          269.9811248779296875
 21
          381.6000061035156250
  0
LINE
  8
1
 62
     3
 10
           99.9811248779296875
 20
          269.9000061035156364
 11
          255.9811248779296875
 21
          269.9000061035156364
  0
LINE
  8
1
 62
     3
 10
           99.9811248779296875
 20
          343.3000061035156136
 11
          255.9811248779296875
 21
          343.3000061035156136
  0
LINE
  8
1
 62
     3
 10
           82.9811248779296875
 20
          252.6000061035156250
 11
          272.9811248779296875
 21
          252.6000061035156250
  0
LINE
  8
1
 62
     3
 10
           82.9811248779296875
 20
          360.6000061035156250
 11
          272.9811248779296875
 21
          360.6000061035156250
  0
LINE
  8
1
 62
     3
 10
           85.9811248779296875
 20
          248.6000061035156818
 11
           97.9811248779296875
 21
          248.6000061035156818
  0
LINE
  8
1
 62
     3
 10
           85.9811248779296875
 20
          364.6000061035156818
 11
           97.9811248779296875
 21
          364.6000061035156818
  0
LINE
  8
1
 62
     3
 10
          254.9811248779296875
 20
          234.6000061035156250
 11
          254.9811248779296875
 21
          245.6000061035156818
  0
LINE
  8
1
 62
     3
 10
          100.9811248779296875
 20
          234.6000061035156250
 11
          100.9811248779296875
 21
          245.6000061035156818
  0
LINE
  8
1
 62
     3
 10
          254.9811248779296875
 20
          367.6000061035156818
 11
          254.9811248779296875
 21
          378.6000061035156250
  0
LINE
  8
1
 62
     3
 10
          100.9811248779296875
 20
          367.6000061035156818
 11
          100.9811248779296875
 21
          378.6000061035156250
  0
LINE
  8
1
 62
     3
 10
          257.9811248779296875
 20
          248.6000061035156818
 11
          269.9811248779296875
 21
          248.6000061035156818
  0
LINE
  8
1
 62
     3
 10
          257.9811248779296875
 20
          364.6000061035156818
 11
          269.9811248779296875
 21
          364.6000061035156818
  0
LINE
  8
1
 62
     3
 10
           99.9811248779296875
 20
          269.9000061035156364
 11
           99.9811248779296875
 21
          343.3000061035156136
  0
LINE
  8
1
 62
     3
 10
          255.9811248779296875
 20
          269.9000061035156364
 11
          255.9811248779296875
 21
          343.3000061035156136
  0
LINE
  8
1
 62
     3
 10
           99.9811248779296875
 20
          269.9000061035156364
 11
           82.9811248779296875
 21
          266.9024474314717281
  0
LINE
  8
1
 62
     3
 10
           99.9811248779296875
 20
          343.3000061035156136
 11
           82.9811248779296875
 21
          346.2975647755595219
  0
LINE
  8
1
 62
     3
 10
          255.9811248779296875
 20
          343.3000061035156136
 11
          272.9811248779296875
 21
          346.2975647755595219
  0
LINE
  8
1
 62
     3
 10
          255.9811248779296875
 20
          269.9000061035156364
 11
          272.9811248779296875
 21
          266.9024474314717281
  0
LINE
  8
1
 62
     3
 10
          358.7471923828125000
 20
           39.8113250732421875
 11
          428.7471923828125000
 21
           39.8113250732421875
  0
LINE
  8
1
 62
     3
 10
          359.7471923828125568
 20
          157.8113250732421875
 11
          376.8587312715115445
 21
          157.8113250732421875
  0
LINE
  8
1
 62
     3
 10
          399.9356534941134669
 20
          187.8113250732421875
 11
          467.5587312715116468
 21
          187.8113250732421875
  0
LINE
  8
1
  6
CENTER
 62
     1
 10
          433.7471923828125000
 20
           39.8113250732421875
 11
          433.7471923828125000
 21
          196.5283050537109091
  0
LINE
  8
1
 62
     3
 10
          359.7471923828125000
 20
           59.8113250732421875
 11
          383.7471923828125000
 21
           59.8113250732421875
  0
LINE
  8
1
 62
     3
 10
          363.7471923828125000
 20
           89.3113250732421875
 11
          375.7471923828125000
 21
           89.3113250732421875
  0
LINE
  8
1
 62
     3
 10
          391.2334899902343750
 20
          177.5962524414062500
 11
          476.3378842671712619
 21
          177.5962524414062500
  0
LINE
  8
1
 62
     3
 10
          395.6042449105591459
 20
          185.3091040230918338
 11
          381.1901398550658655
 21
          160.3135461233925412
  0
LINE
  8
1
 62
     3
 10
          486.3042449105591913
 20
          160.3135461233925412
 11
          471.8901398550659678
 21
          185.3091040230918338
  0
LINE
  8
1
 62
     3
 10
          375.7471923828125000
 20
           91.1311762445731972
 11
          375.7471923828125000
 21
          118.3113250732421875
  0
LINE
  8
1
 62
     3
 10
          491.7471923828125000
 20
           91.1311762445731688
 11
          491.7471923828125000
 21
          118.3113250732421875
  0
LINE
  8
1
 62
     3
 10
          388.7471923828125000
 20
           64.8113250732421875
 11
          388.7471923828125000
 21
           71.9986771981863853
  0
LINE
  8
1
 62
     3
 10
          478.7471923828125000
 20
           64.8113250732421875
 11
          478.7471923828125000
 21
           71.9986771981864990
  0
LINE
  8
1
 62
     3
 10
          490.5774145984073584
 20
           87.9172381961404881
 11
          479.9169701672176416
 21
           75.2126152466191797
  0
LINE
  8
1
 62
     3
 10
          376.9169701672175847
 20
           87.9172381961405165
 11
          387.5774145984074153
 21
           75.2126152466190945
  0
LINE
  8
1
 62
     3
 10
          483.7471923828125000
 20
           59.8113250732421875
 11
          507.7471923828125000
 21
           59.8113250732421875
  0
LINE
  8
1
 62
     3
 10
          491.7471923828125000
 20
           89.3113250732421875
 11
          503.7471923828125000
 21
           89.3113250732421875
  0
LINE
  8
1
 62
     3
 10
          490.6356534941135124
 20
          157.8113250732421875
 11
          507.7471923828125000
 21
          157.8113250732421875
  0
LINE
  8
1
 62
     3
 10
          358.7471923828125000
 20
           39.8113250732421875
 11
          358.7471923828125000
 21
          118.3113250732421875
  0
LINE
  8
1
 62
     3
 10
          508.7471923828125000
 20
           39.8113250732421875
 11
          508.7471923828125000
 21
          118.3113250732421875
  0
LINE
  8
1
 62
     3
 10
          428.7471923828125000
 20
           45.8113250732421875
 11
          438.7471923828125000
 21
           45.8113250732421875
  0
LINE
  8
1
 62
     3
 10
          428.7471923828125000
 20
           39.8113250732421875
 11
          428.7471923828125000
 21
           45.8113250732421875
  0
LINE
  8
1
 62
     3
 10
          438.7471923828125000
 20
           39.8113250732421875
 11
          438.7471923828125000
 21
           45.8113250732421875
  0
LINE
  8
1
 62
     3
 10
          358.7471923828125000
 20
           39.8113250732421875
 11
          428.7471923828125000
 21
           39.8113250732421875
  0
LINE
  8
1
 62
     3
 10
           82.9811248779296875
 20
          121.3113250732421875
 11
          272.9811248779296875
 21
          121.3113250732421875
  0
LINE
  8
1
 62
     3
 10
           82.9811248779296875
 20
          118.3113250732421875
 11
          272.9811248779296875
 21
          118.3113250732421875
  0
LINE
  8
1
 62
     3
 10
          358.7471923828125000
 20
          121.3113250732421875
 11
          358.7471923828125568
 21
          156.8113250732421875
  0
LINE
  8
1
 62
     3
 10
          375.7471923828125000
 20
          121.3113250732421875
 11
          375.7471923828125000
 21
          155.0374126328358670
  0
LINE
  8
1
 62
     3
 10
          491.7471923828125000
 20
          121.3113250732421875
 11
          491.7471923828125000
 21
          155.0374126328358670
  0
LINE
  8
1
 62
     3
 10
          508.7471923828125000
 20
          121.3113250732421875
 11
          508.7471923828125000
 21
          156.8113250732421875
  0
LINE
  8
1
 62
     3
 10
           82.9811248779296875
 20
          121.3113250732421875
 11
           82.9811248779296875
 21
          176.2643196894496214
  0
LINE
  8
1
 62
     3
 10
          100.9811248779296875
 20
          121.3113250732421875
 11
          100.9811248779296875
 21
          154.8113250732421875
  0
LINE
  8
1
 62
     3
 10
          254.9811248779296875
 20
          121.3113250732421875
 11
          254.9811248779296875
 21
          154.8113250732421875
  0
LINE
  8
1
 62
     3
 10
          272.9811248779296875
 20
          121.3113250732421875
 11
          272.9811248779296875
 21
          176.2643196894496214
  0
LINE
  8
1
 62
     3
 10
          358.7471923828125000
 20
          121.3113250732421875
 11
          381.7688315006146240
 21
          121.3113250732421875
  0
LINE
  8
1
 62
     3
 10
          358.7471923828125000
 20
          118.3113250732421875
 11
          381.7688315006146240
 21
          118.3113250732421875
  0
LINE
  8
1
 62
     3
 10
          172.9811248779296875
 20
           45.8113250732421875
 11
          182.9811248779296875
 21
           45.8113250732421875
  0
LINE
  8
1
 62
     3
 10
          172.9811248779296875
 20
           39.8113250732421875
 11
          172.9811248779296875
 21
           45.8113250732421875
  0
LINE
  8
1
 62
     3
 10
          182.9811248779296875
 20
           39.8113250732421875
 11
          182.9811248779296875
 21
           45.8113250732421875
  0
LINE
  8
1
 62
     3
 10
          182.9811248779296875
 20
           39.8113250732421875
 11
          272.9811248779296875
 21
           39.8113250732421875
  0
LINE
  8
1
 62
     3
 10
          485.7255532650103760
 20
          121.3113250732421875
 11
          508.7471923828125000
 21
          121.3113250732421875
  0
LINE
  8
1
 62
     3
 10
          485.7255532650103760
 20
          118.3113250732421875
 11
          508.7471923828125000
 21
          118.3113250732421875
  0
LINE
  8
1
  6
CENTER
 62
     1
 10
           85.4811248779296875
 20
          241.6000061035156818
 11
          100.4811248779296875
 21
          241.6000061035156818
  0
LINE
  8
1
  6
CENTER
 62
     1
 10
           92.9811248779296875
 20
          234.1000061035156818
 11
           92.9811248779296875
 21
          249.1000061035156818
  0
LINE
  8
1
  6
CENTER
 62
     1
 10
          255.4811248779296875
 20
          241.6000061035156818
 11
          270.4811248779296875
 21
          241.6000061035156818
  0
LINE
  8
1
  6
CENTER
 62
     1
 10
          262.9811248779296875
 20
          234.1000061035156818
 11
          262.9811248779296875
 21
          249.1000061035156818
  0
LINE
  8
1
  6
CENTER
 62
     1
 10
          255.4811248779296875
 20
          371.6000061035156818
 11
          270.4811248779296875
 21
          371.6000061035156818
  0
LINE
  8
1
  6
CENTER
 62
     1
 10
          262.9811248779296875
 20
          364.1000061035156818
 11
          262.9811248779296875
 21
          379.1000061035156818
  0
LINE
  8
1
  6
CENTER
 62
     1
 10
           85.4811248779296875
 20
          371.6000061035156818
 11
          100.4811248779296875
 21
          371.6000061035156818
  0
LINE
  8
1
  6
CENTER
 62
     1
 10
           92.9811248779296875
 20
          364.1000061035156818
 11
           92.9811248779296875
 21
          379.1000061035156818
  0
LINE
  8
1
 62
     3
 10
          234.0203248779296814
 20
          167.8113250732421875
 11
          232.9811248779296875
 21
          167.2113270732421597
  0
LINE
  8
1
 62
     3
 10
          247.9419288779296835
 20
          167.8113250732421875
 11
          234.0203248779296814
 21
          167.8113250732421875
  0
LINE
  8
1
 62
     3
 10
          232.9811398779297065
 20
          157.8113250732421875
 11
          232.9811248779296875
 21
          167.2113270732421597
  0
LINE
  8
1
 62
     3
 10
          248.9811248779296875
 20
          167.2113270732421597
 11
          247.9419288779296835
 21
          167.8113250732421875
  0
LINE
  8
1
 62
     3
 10
          232.9811248779296875
 20
          167.2113270732421597
 11
          248.9811248779296875
 21
          167.2113270732421597
  0
LINE
  8
1
 62
     3
 10
          248.9811248779296875
 20
          157.8113250732421875
 11
          248.9811248779296875
 21
          167.2113270732421597
  0
LINE
  8
1
 62
     3
 10
          108.0203248779296814
 20
          167.8113250732421875
 11
          106.9811248779296875
 21
          167.2113270732421597
  0
LINE
  8
1
 62
     3
 10
          121.9419288779296835
 20
          167.8113250732421875
 11
          108.0203248779296814
 21
          167.8113250732421875
  0
LINE
  8
1
 62
     3
 10
          122.9811248779296875
 20
          167.2113270732421597
 11
          121.9419288779296835
 21
          167.8113250732421875
  0
LINE
  8
1
 62
     3
 10
          106.9811248779296875
 20
          167.2113270732421597
 11
          122.9811248779296875
 21
          167.2113270732421597
  0
LINE
  8
1
 62
     3
 10
          122.9811248779296875
 20
          157.8113250732421875
 11
          122.9811248779296875
 21
          167.2113270732421597
  0
LINE
  8
1
 62
     3
 10
          106.9811248779296875
 20
          157.8113250732421875
 11
          106.9811248779296875
 21
          167.2113270732421597
  0
LINE
  8
1
 62
     3
 10
          360.7863923828124939
 20
          167.8113250732421875
 11
          359.7471923828125000
 21
          167.2113270732421597
  0
LINE
  8
1
 62
     3
 10
          374.7079963828124960
 20
          167.8113250732421875
 11
          360.7863923828124939
 21
          167.8113250732421875
  0
LINE
  8
1
 62
     3
 10
          359.7472073828125190
 20
          157.8113250732421875
 11
          359.7471923828125000
 21
          167.2113270732421597
  0
LINE
  8
1
 62
     3
 10
          375.7471923828125000
 20
          167.2113270732421597
 11
          374.7079963828124960
 21
          167.8113250732421875
  0
LINE
  8
1
 62
     3
 10
          359.7471923828125000
 20
          167.2113270732421597
 11
          375.7471923828125000
 21
          167.2113270732421597
  0
LINE
  8
1
 62
     3
 10
          375.7471923828125000
 20
          157.8113250732421875
 11
          375.7471923828125000
 21
          167.2113270732421597
  0
LINE
  8
1
 62
     3
 10
          492.7863923828124939
 20
          167.8113250732421875
 11
          491.7471923828125000
 21
          167.2113270732421597
  0
LINE
  8
1
 62
     3
 10
          506.7079963828124960
 20
          167.8113250732421875
 11
          492.7863923828124939
 21
          167.8113250732421875
  0
LINE
  8
1
 62
     3
 10
          491.7472073828125190
 20
          157.8113250732421875
 11
          491.7471923828125000
 21
          167.2113270732421597
  0
LINE
  8
1
 62
     3
 10
          507.7471923828125000
 20
          167.2113270732421597
 11
          506.7079963828124960
 21
          167.8113250732421875
  0
LINE
  8
1
 62
     3
 10
          491.7471923828125000
 20
          167.2113270732421597
 11
          507.7471923828125000
 21
          167.2113270732421597
  0
LINE
  8
1
 62
     3
 10
          507.7471923828125000
 20
          157.8113250732421875
 11
          507.7471923828125000
 21
          167.2113270732421597
  0
LINE
  8
1
  6
CENTER
 62
     1
 10
          262.9811248779296875
 20
           32.7547149658203054
 11
          262.9811248779296875
 21
           66.5660400390625000
  0
LINE
  8
1
  6
CENTER
 62
     1
 10
           92.9811248779296875
 20
           32.7547149658203054
 11
           92.9811248779296875
 21
           66.5660400390625000
  0
LINE
  8
1
  6
CENTER
 62
     1
 10
          368.7471923828124432
 20
           32.7547149658203054
 11
          368.7471923828124432
 21
           66.5660400390625000
  0
LINE
  8
1
  6
CENTER
 62
     1
 10
          498.7471923828124432
 20
           32.7547149658203054
 11
          498.7471923828124432
 21
           66.5660400390625000
  0
LINE
  8
1
 62
     3
 10
          206.9811248779296591
 20
           59.8113250732421875
 11
          271.9811248779296875
 21
           59.8113250732421875
  0
LINE
  8
1
 62
     3
 10
          438.7471923828125000
 20
           39.8113250732421875
 11
          508.7471923828125000
 21
           39.8113250732421875
  0
ARC
  8
1
 62
     3
 10
          148.9811248779296875
 20
           76.6464028037025287
 40
            5.0000000000000000
 50
            0.0000000000000000
 51
           80.9998355748719092
  0
ARC
  8
1
 62
     3
 10
          206.9811248779296875
 20
           76.6847848582013683
 40
            5.0000000000000000
 50
           98.9561800283330228
 51
          180.0000000000000000
  0
ARC
  8
1
 62
     3
 10
          148.9811248779296875
 20
           64.8113250732421875
 40
            5.0000000000000000
 50
          -90.0000000000000000
 51
            0.0000000000000000
  0
ARC
  8
1
 62
     3
 10
          206.9811248779296591
 20
           64.8113250732421875
 40
            5.0000000000000000
 50
         -180.0000000000000000
 51
          -90.0000000000000000
  0
ARC
  8
1
 62
     3
 10
          251.9811248779296875
 20
          154.8113250732421875
 40
            3.0000000000000000
 50
            0.0000000000000000
 51
           90.0000000000000000
  0
ARC
  8
1
 62
     3
 10
          103.9811248779296875
 20
          154.8113250732421875
 40
            3.0000000000000000
 50
           90.0000000000000000
 51
          180.0000000000000000
  0
ARC
  8
1
 62
     3
 10
           85.9811248779296875
 20
          154.8113250732421875
 40
            3.0000000000000000
 50
           90.0000000000000000
 51
          180.0000000000000000
  0
ARC
  8
1
 62
     3
 10
          269.9811248779296875
 20
          154.8113250732421875
 40
            3.0000000000000000
 50
            0.0000000000000000
 51
           90.0000000000000000
  0
ARC
  8
1
 62
     3
 10
           85.9811248779296875
 20
          176.2643196894496214
 40
            3.0000000000000000
 50
          120.0000000000002416
 51
          180.0000000000000000
  0
ARC
  8
1
 62
     3
 10
          100.7849724552230555
 20
          184.8113250732421875
 40
            3.0000000000000000
 50
           90.0000000000000000
 51
          119.9999999999999858
  0
ARC
  8
1
 62
     3
 10
          255.1772773006363195
 20
          184.8113250732421875
 40
            3.0000000000000000
 50
           60.0000000000000071
 51
           90.0000000000000000
  0
ARC
  8
1
 62
     3
 10
          269.9811248779296875
 20
          176.2643196894496214
 40
            3.0000000000000000
 50
            0.0000000000000000
 51
           60.0000000000000071
  0
ARC
  8
1
 62
     3
 10
           83.9811248779296875
 20
           58.8113250732421875
 40
            1.0000000000000000
 50
           90.0000000000000000
 51
          180.0000000000000000
  0
ARC
  8
1
 62
     3
 10
          271.9811248779296875
 20
           58.8113250732421875
 40
            1.0000000000000000
 50
            0.0000000000000000
 51
           90.0000000000000000
  0
ARC
  8
1
 62
     3
 10
           85.9811248779296875
 20
          378.6000061035156250
 40
            3.0000000000000000
 50
           90.0000000000000000
 51
          180.0000000000000000
  0
ARC
  8
1
 62
     3
 10
          269.9811248779296875
 20
          378.6000061035156250
 40
            3.0000000000000000
 50
            0.0000000000000000
 51
           90.0000000000000000
  0
ARC
  8
1
 62
     3
 10
          269.9811248779296875
 20
          234.6000061035156250
 40
            3.0000000000000000
 50
          -90.0000000000000000
 51
            0.0000000000000000
  0
ARC
  8
1
 62
     3
 10
           85.9811248779296875
 20
          234.6000061035156250
 40
            3.0000000000000000
 50
         -180.0000000000000000
 51
          -90.0000000000000000
  0
ARC
  8
1
 62
     3
 10
           97.9811248779296875
 20
          367.6000061035156818
 40
            3.0000000000000000
 50
          -90.0000000000000000
 51
            0.0000000000000000
  0
ARC
  8
1
 62
     3
 10
          257.9811248779296875
 20
          367.6000061035156818
 40
            3.0000000000000000
 50
          180.0000000000000000
 51
          270.0000000000000000
  0
ARC
  8
1
 62
     3
 10
          257.9811248779296875
 20
          245.6000061035156818
 40
            3.0000000000000000
 50
           90.0000000000000000
 51
          180.0000000000000000
  0
ARC
  8
1
 62
     3
 10
           97.9811248779296875
 20
          245.6000061035156818
 40
            3.0000000000000000
 50
            0.0000000000000000
 51
           90.0000000000000000
  0
ARC
  8
1
 62
     3
 10
          103.9811248779296875
 20
          234.6000061035156250
 40
            3.0000000000000000
 50
         -180.0000000000000000
 51
          -90.0000000000000000
  0
ARC
  8
1
 62
     3
 10
          251.9811248779296875
 20
          234.6000061035156250
 40
            3.0000000000000000
 50
          -90.0000000000000000
 51
            0.0000000000000000
  0
ARC
  8
1
 62
     3
 10
          103.9811248779296875
 20
          378.6000061035156250
 40
            3.0000000000000000
 50
           90.0000000000000000
 51
          180.0000000000000000
  0
ARC
  8
1
 62
     3
 10
          251.9811248779296875
 20
          378.6000061035156250
 40
            3.0000000000000000
 50
            0.0000000000000000
 51
           90.0000000000000000
  0
ARC
  8
1
 62
     3
 10
           85.9811248779296875
 20
          361.6000061035156818
 40
            3.0000000000000000
 50
           90.0000000000000000
 51
          180.0000000000000000
  0
ARC
  8
1
 62
     3
 10
          269.9811248779296875
 20
          361.6000061035156818
 40
            3.0000000000000000
 50
            0.0000000000000000
 51
           90.0000000000000000
  0
ARC
  8
1
 62
     3
 10
          269.9811248779296875
 20
          251.6000061035156818
 40
            3.0000000000000000
 50
          -90.0000000000000000
 51
            0.0000000000000000
  0
ARC
  8
1
 62
     3
 10
           85.9811248779296875
 20
          251.6000061035156818
 40
            3.0000000000000000
 50
          180.0000000000000000
 51
          270.0000000000000000
  0
ARC
  8
1
 62
     3
 10
          383.7471923828125000
 20
           64.8113250732421875
 40
            5.0000000000000000
 50
          -90.0000000000000000
 51
            0.0000000000000000
  0
ARC
  8
1
 62
     3
 10
          483.7471923828125000
 20
           64.8113250732421875
 40
            5.0000000000000000
 50
         -180.0000000000000000
 51
          -90.0000000000000000
  0
ARC
  8
1
 62
     3
 10
          363.7471923828125000
 20
           94.3113250732421875
 40
            5.0000000000000000
 50
          180.0000000000000000
 51
          270.0000000000000000
  0
ARC
  8
1
 62
     3
 10
          503.7471923828125000
 20
           94.3113250732421875
 40
            5.0000000000000000
 50
          -90.0000000000000000
 51
            0.0000000000000000
  0
ARC
  8
1
 62
     3
 10
          467.5587312715116468
 20
          182.8113250732421875
 40
            5.0000000000000000
 50
           29.9706156499831984
 51
           90.0000000000000000
  0
ARC
  8
1
 62
     3
 10
          399.9356534941134669
 20
          182.8113250732421875
 40
            5.0000000000000000
 50
           90.0000000000000000
 51
          150.0293843500167839
  0
ARC
  8
1
 62
     3
 10
          490.6356534941135124
 20
          162.8113250732421875
 40
            5.0000000000000000
 50
         -150.0293843500168691
 51
         -103.6539751603328057
  0
ARC
  8
1
 62
     3
 10
          376.8587312715115445
 20
          162.8113250732421875
 40
            5.0000000000000000
 50
          -76.3460248396671659
 51
          -29.9706156499831025
  0
ARC
  8
1
 62
     3
 10
          383.7471923828125000
 20
           71.9986771981863853
 40
            5.0000000000000000
 50
            0.0000000000000000
 51
           39.9999999999999289
  0
ARC
  8
1
 62
     3
 10
          483.7471923828125000
 20
           71.9986771981864990
 40
            5.0000000000000000
 50
          139.9999999999999147
 51
          180.0000000000000000
  0
ARC
  8
1
 62
     3
 10
          486.7471923828125000
 20
           91.1311762445731688
 40
            5.0000000000000000
 50
          -40.0000000000000924
 51
            0.0000000000000000
  0
ARC
  8
1
 62
     3
 10
          380.7471923828125000
 20
           91.1311762445731972
 40
            5.0000000000000000
 50
         -180.0000000000000000
 51
         -140.0000000000003126
  0
ARC
  8
1
 62
     3
 10
          378.7471923828125000
 20
          155.0374126328358670
 40
            3.0000000000000000
 50
          103.6539751603327062
 51
          180.0000000000000000
  0
ARC
  8
1
 62
     3
 10
          488.7471923828125000
 20
          155.0374126328358670
 40
            3.0000000000000000
 50
            0.0000000000000000
 51
           76.3460248396662280
  0
ARC
  8
1
 62
     3
 10
          359.7471923828125568
 20
          156.8113250732421875
 40
            1.0000000000000000
 50
           90.0000000000000000
 51
          180.0000000000000000
  0
ARC
  8
1
 62
     3
 10
          507.7471923828125000
 20
          156.8113250732421875
 40
            1.0000000000000000
 50
            0.0000000000000000
 51
           90.0000000000000000
  0
ARC
  8
1
 62
     3
 10
          359.7471923828125000
 20
           58.8113250732421875
 40
            1.0000000000000000
 50
           90.0000000000000000
 51
          180.0000000000000000
  0
ARC
  8
1
 62
     3
 10
          507.7471923828125000
 20
           58.8113250732421875
 40
            1.0000000000000000
 50
            0.0000000000000000
 51
           90.0000000000000000
  0
ARC
  8
1
 62
     3
 10
          433.7471923828125000
 20
          119.8113250732421875
 40
           52.0000000000000000
 50
         -178.3470078327330839
 51
           -1.6529921672668877
  0
ARC
  8
1
 62
     3
 10
          433.7471923828125000
 20
          119.8113250732421875
 40
           52.0000000000000000
 50
            1.6529921672668746
 51
          178.3470078327330839
  0
CIRCLE
  8
1
 62
     3
 10
           92.9811248779296875
 20
          241.6000061035156818
 40
            5.5000000000000000
  0
CIRCLE
  8
1
 62
     3
 10
           92.9811248779296875
 20
          371.6000061035156818
 40
            5.5000000000000000
  0
CIRCLE
  8
1
 62
     3
 10
          262.9811248779296875
 20
          371.6000061035156818
 40
            5.5000000000000000
  0
CIRCLE
  8
1
 62
     3
 10
          262.9811248779296875
 20
          241.6000061035156818
 40
            5.5000000000000000
  0
CIRCLE
  8
1
 62
     3
 10
          240.9811248779296875
 20
          240.6000061035156250
 40
            8.0000000000000000
  0
CIRCLE
  8
1
 62
     3
 10
          240.9811248779296875
 20
          240.6000061035156250
 40
            6.9600000000000000
  0
CIRCLE
  8
1
 62
     3
 10
          114.9811248779296875
 20
          240.6000061035156250
 40
            8.0000000000000000
  0
CIRCLE
  8
1
 62
     3
 10
          114.9811248779296875
 20
          240.6000061035156250
 40
            6.9600000000000000
  0
CIRCLE
  8
1
 62
     3
 10
          114.9811248779296875
 20
          372.6000061035156250
 40
            8.0000000000000000
  0
CIRCLE
  8
1
 62
     3
 10
          114.9811248779296875
 20
          372.6000061035156250
 40
            6.9600000000000000
  0
CIRCLE
  8
1
 62
     3
 10
          240.9811248779296875
 20
          372.6000061035156250
 40
            8.0000000000000000
  0
CIRCLE
  8
1
 62
     3
 10
          240.9811248779296875
 20
          372.6000061035156250
 40
            6.9600000000000000
  0
ARC
  8
1
 62
     3
 10
          103.9811248779296875
 20
           91.8735596849659828
 40
            3.0000000000000000
 50
          180.0000000000000000
 51
          260.9998355748716676
  0
ARC
  8
1
 62
     3
 10
          251.9811248779296875
 20
           91.8755518145713523
 40
            3.0000000000000000
 50
          -81.0438199716670624
 51
            0.0000000000000000
  0
POLYLINE
  8
1
 66
     1
 70
     1
 62
     3
  0
VERTEX
  8
1
 10
          244.9811248779296875
 20
          238.2906041035156477
  0
VERTEX
  8
1
 10
          244.9811248779296875
 20
          242.9094081035156023
  0
VERTEX
  8
1
 10
          240.9811248779296875
 20
          245.2188071035156440
  0
VERTEX
  8
1
 10
          236.9811248779296875
 20
          242.9094051035156099
  0
VERTEX
  8
1
 10
          236.9811248779296875
 20
          238.2906041035156477
  0
VERTEX
  8
1
 10
          240.9811248779296875
 20
          235.9812051035156060
  0
VERTEX
  8
1
 10
          244.9811248779296875
 20
          238.2906041035156477
  0
SEQEND
  0
POLYLINE
  8
1
 66
     1
 70
     1
 62
     3
  0
VERTEX
  8
1
 10
          118.9811248779296875
 20
          238.2906041035156477
  0
VERTEX
  8
1
 10
          118.9811248779296875
 20
          242.9094081035156023
  0
VERTEX
  8
1
 10
          114.9811248779296875
 20
          245.2188071035156440
  0
VERTEX
  8
1
 10
          110.9811248779296875
 20
          242.9094051035156099
  0
VERTEX
  8
1
 10
          110.9811248779296875
 20
          238.2906041035156477
  0
VERTEX
  8
1
 10
          114.9811248779296875
 20
          235.9812051035156060
  0
VERTEX
  8
1
 10
          118.9811248779296875
 20
          238.2906041035156477
  0
SEQEND
  0
POLYLINE
  8
1
 66
     1
 70
     1
 62
     3
  0
VERTEX
  8
1
 10
          118.9811248779296875
 20
          370.2906041035156477
  0
VERTEX
  8
1
 10
          118.9811248779296875
 20
          374.9094081035156023
  0
VERTEX
  8
1
 10
          114.9811248779296875
 20
          377.2188071035156440
  0
VERTEX
  8
1
 10
          110.9811248779296875
 20
          374.9094051035156099
  0
VERTEX
  8
1
 10
          110.9811248779296875
 20
          370.2906041035156477
  0
VERTEX
  8
1
 10
          114.9811248779296875
 20
          367.9812051035156060
  0
VERTEX
  8
1
 10
          118.9811248779296875
 20
          370.2906041035156477
  0
SEQEND
  0
POLYLINE
  8
1
 66
     1
 70
     1
 62
     3
  0
VERTEX
  8
1
 10
          244.9811248779296875
 20
          370.2906041035156477
  0
VERTEX
  8
1
 10
          244.9811248779296875
 20
          374.9094081035156023
  0
VERTEX
  8
1
 10
          240.9811248779296875
 20
          377.2188071035156440
  0
VERTEX
  8
1
 10
          236.9811248779296875
 20
          374.9094051035156099
  0
VERTEX
  8
1
 10
          236.9811248779296875
 20
          370.2906041035156477
  0
VERTEX
  8
1
 10
          240.9811248779296875
 20
          367.9812051035156060
  0
VERTEX
  8
1
 10
          244.9811248779296875
 20
          370.2906041035156477
  0
SEQEND
  0
TEXT
  8
1
 62
     3
 10
          373.3773498535156250
 20
          237.8867950439453125
 40
            5.0000000000000000
  1
LC-104
 50
            0.0000000000000000
 41
            0.6720000000000000
  7
STANDARD
  0
TEXT
  8
1
 62
     3
 10
          373.4428833007813182
 20
          229.8876190185546875
 40
            5.0000000000000000
  1
1996.07.03
 50
            0.0000000000000000
 41
            0.6720000000000000
  7
STANDARD
  0
ENDSEC
  0
EOF
