  0
SECTION
  2
HEADER
  9
$ACADVER
  1
AC1009
  9
$INSBASE
 10
0.0
 20
0.0
 30
0.0
  9
$EXTMIN
 10
44.7083740234375
 20
18.876708984375
 30
1.0000000000000000E+20
  9
$EXTMAX
 10
553.3599853515625
 20
403.95147705078125
 30
-1.0000000000000000E+20
  9
$LIMMIN
 10
0.0
 20
0.0
  9
$LIMMAX
 10
12.0
 20
9.0
  9
$ORTHOMODE
 70
               0
  9
$REGENMODE
 70
               1
  9
$FILLMODE
 70
               1
  9
$QTEXTMODE
 70
               0
  9
$MIRRTEXT
 70
               1
  9
$DRAGMODE
 70
               2
  9
$LTSCALE
 40
8.4775268554687493
  9
$OSMODE
 70
               0
  9
$ATTMODE
 70
               1
  9
$TEXTSIZE
 40
3.2000000000000002
  9
$TRACEWID
 40
0.05
  9
$TEXTSTYLE
  7
STANDARD
  9
$CLAYER
  8
0
  9
$CELTYPE
  6
CONTINUOUS
  9
$CECOLOR
 62
             256
  9
$DIMSCALE
 40
1.0
  9
$DIMASZ
 40
0.18
  9
$DIMEXO
 40
0.0625
  9
$DIMDLI
 40
0.38
  9
$DIMRND
 40
0.0
  9
$DIMDLE
 40
0.0
  9
$DIMEXE
 40
0.18
  9
$DIMTP
 40
0.0
  9
$DIMTM
 40
0.0
  9
$DIMTXT
 40
0.18
  9
$DIMCEN
 40
0.09
  9
$DIMTSZ
 40
0.0
  9
$DIMTOL
 70
               0
  9
$DIMLIM
 70
               0
  9
$DIMTIH
 70
               1
  9
$DIMTOH
 70
               1
  9
$DIMSE1
 70
               0
  9
$DIMSE2
 70
               0
  9
$DIMTAD
 70
               0
  9
$DIMZIN
 70
               0
  9
$DIMBLK
  1

  9
$DIMASO
 70
               1
  9
$DIMSHO
 70
               1
  9
$DIMPOST
  1

  9
$DIMAPOST
  1

  9
$DIMALT
 70
               0
  9
$DIMALTD
 70
               2
  9
$DIMALTF
 40
25.399999999999999
  9
$DIMLFAC
 40
1.0
  9
$DIMTOFL
 70
               0
  9
$DIMTVP
 40
0.0
  9
$DIMTIX
 70
               0
  9
$DIMSOXD
 70
               0
  9
$DIMSAH
 70
               0
  9
$DIMBLK1
  1

  9
$DIMBLK2
  1

  9
$DIMSTYLE
  2
STANDARD
  9
$DIMCLRD
 70
               0
  9
$DIMCLRE
 70
               0
  9
$DIMCLRT
 70
               0
  9
$DIMTFAC
 40
1.0
  9
$DIMGAP
 40
0.09
  9
$LUNITS
 70
               2
  9
$LUPREC
 70
               4
  9
$AXISMODE
 70
               0
  9
$AXISUNIT
 10
0.0
 20
0.0
  9
$SKETCHINC
 40
0.1
  9
$FILLETRAD
 40
0.0
  9
$AUNITS
 70
               0
  9
$AUPREC
 70
               0
  9
$MENU
  1
acad
  9
$ELEVATION
 40
0.0
  9
$PELEVATION
 40
0.0
  9
$THICKNESS
 40
0.0
  9
$LIMCHECK
 70
               0
  9
$BLIPMODE
 70
               1
  9
$CHAMFERA
 40
0.0
  9
$CHAMFERB
 40
0.0
  9
$SKPOLY
 70
               0
  9
$TDCREATE
 40
0.000000000
  9
$TDUPDATE
 40
0.000000000
  9
$TDINDWG
 40
0.0000000000
  9
$TDUSRTIMER
 40
0.0000000000
  9
$USRTIMER
 70
               1
  9
$ANGBASE
 50
0.0
  9
$ANGDIR
 70
               0
  9
$PDMODE
 70
               0
  9
$PDSIZE
 40
0.0
  9
$PLINEWID
 40
0.0
  9
$COORDS
 70
               1
  9
$SPLFRAME
 70
               0
  9
$SPLINETYPE
 70
               6
  9
$SPLINESEGS
 70
               8
  9
$ATTDIA
 70
               0
  9
$ATTREQ
 70
               1
  9
$HANDLING
 70
               1
  9
$HANDSEED
  5
157
  9
$SURFTAB1
 70
               6
  9
$SURFTAB2
 70
               6
  9
$SURFTYPE
 70
               6
  9
$SURFU
 70
               6
  9
$SURFV
 70
               6
  9
$UCSNAME
  2

  9
$UCSORG
 10
0.0
 20
0.0
 30
0.0
  9
$UCSXDIR
 10
1.0
 20
0.0
 30
0.0
  9
$UCSYDIR
 10
0.0
 20
1.0
 30
0.0
  9
$PUCSNAME
  2

  9
$PUCSORG
 10
0.0
 20
0.0
 30
0.0
  9
$PUCSXDIR
 10
1.0
 20
0.0
 30
0.0
  9
$PUCSYDIR
 10
0.0
 20
1.0
 30
0.0
  9
$USERI1
 70
               0
  9
$USERI2
 70
               0
  9
$USERI3
 70
               0
  9
$USERI4
 70
               0
  9
$USERI5
 70
               0
  9
$USERR1
 40
0.0
  9
$USERR2
 40
0.0
  9
$USERR3
 40
0.0
  9
$USERR4
 40
0.0
  9
$USERR5
 40
0.0
  9
$WORLDVIEW
 70
               1
  9
$SHADEDGE
 70
               3
  9
$SHADEDIF
 70
              70
  9
$TILEMODE
 70
               1
  9
$MAXACTVP
 70
              16
  9
$PINSBASE
 10
0.0
 20
0.0
 30
0.0
  9
$PLIMCHECK
 70
               0
  9
$PEXTMIN
 10
1.0000000000000000E+20
 20
1.0000000000000000E+20
 30
1.0000000000000000E+20
  9
$PEXTMAX
 10
-1.0000000000000000E+20
 20
-1.0000000000000000E+20
 30
-1.0000000000000000E+20
  9
$PLIMMIN
 10
0.0
 20
0.0
  9
$PLIMMAX
 10
12.0
 20
9.0
  9
$UNITMODE
 70
               0
  9
$VISRETAIN
 70
               0
  9
$PLINEGEN
 70
               0
  9
$PSLTSCALE
 70
               1
  9
$TREEDEPTH
 70
            3020
  9
$DWGCODEPAGE
  3
dos932
  0
ENDSEC
  0
SECTION
  2
TABLES
  0
TABLE
  2
VPORT
 70
               1
  0
VPORT
  2
*ACTIVE
 70
               0
 10
0.0
 20
0.0
 11
1.0
 21
1.0
 12
299.0341796875
 22
211.41409301757812
 13
0.0
 23
0.0
 14
1.0
 24
1.0
 15
0.0
 25
0.0
 16
0.0
 26
0.0
 36
1.0
 17
0.0
 27
0.0
 37
0.0
 40
388.92551574707034
 41
1.6912879999999999
 42
50.0
 43
0.0
 44
0.0
 50
0.0
 51
0.0
 71
               0
 72
             100
 73
               1
 74
               1
 75
               0
 76
               0
 77
               0
 78
               0
  0
ENDTAB
  0
TABLE
  2
LTYPE
 70
               5
  0
LTYPE
  2
CONTINUOUS
 70
              64
  3
Solid line
 72
              65
 73
               0
 40
0.0
  0
LTYPE
  2
DASHED
 70
              64
  3
DASHED
 72
              65
 73
               2
 40
0.75
 49
0.5
 49
-0.25
  0
LTYPE
  2
HIDDEN
 70
              64
  3
HIDDEN
 72
              65
 73
               2
 40
0.375
 49
0.25
 49
-0.125
  0
LTYPE
  2
CENTER
 70
              64
  3
CENTER
 72
              65
 73
               4
 40
2.0
 49
1.25
 49
-0.25
 49
0.25
 49
-0.25
  0
LTYPE
  2
PHANTOM
 70
              64
  3
PHANTOM
 72
              65
 73
               6
 40
2.5
 49
1.25
 49
-0.25
 49
0.25
 49
-0.25
 49
0.25
 49
-0.25
  0
ENDTAB
  0
TABLE
  2
LAYER
 70
               2
  0
LAYER
  2
0
 70
               0
 62
               7
  6
CONTINUOUS
  0
LAYER
  2
001
 70
               0
 62
               7
  6
CONTINUOUS
  0
ENDTAB
  0
TABLE
  2
STYLE
 70
               2
  0
STYLE
  2
STANDARD
 70
               0
 40
0.0
 41
1.0
 50
0.0
 71
               0
 42
0.2
  3
TXT
  4
BIGFONT
  0
STYLE
  2
TATEGAKI
 70
               4
 40
1.0
 41
1.0
 50
0.0
 71
               0
 42
0.2
  3
TXT
  4
BIGFONT
  0
ENDTAB
  0
TABLE
  2
VIEW
 70
               0
  0
ENDTAB
  0
TABLE
  2
UCS
 70
               0
  0
ENDTAB
  0
TABLE
  2
APPID
 70
               1
  0
APPID
  2
ACAD
 70
               0
  0
ENDTAB
  0
TABLE
  2
DIMSTYLE
 70
               1
  0
DIMSTYLE
  2
STANDARD
 70
               0
  3

  4

  5

  6

  7

 40
1.0
 41
0.18
 42
0.0625
 43
0.38
 44
0.18
 45
0.0
 46
0.0
 47
0.0
 48
0.0
 71
               0
 72
               0
 73
               1
 74
               1
 75
               0
 76
               0
 77
               0
 78
               0
140
0.18
141
0.09
142
0.0
143
25.399999999999999
144
1.0
145
0.0
146
1.0
147
0.09
170
               0
171
               2
172
               0
173
               0
174
               0
175
               0
176
               0
177
               0
178
               0
  0
ENDTAB
  0
ENDSEC
  0
SECTION
  2
BLOCKS
  0
BLOCK
  8
001
 62
               0
  5
24
  2
ETC-1
 70
               0
 10
0.0
 20
0.0
 30
0.0
  3
ETC-1
  0
POLYLINE
  8
001
 62
               3
  5
25
 66
               1
 10
0.0
 20
0.0
 30
0.0
  0
VERTEX
  8
001
 62
               3
  5
26
 10
287.4528018755027
 20
169.10753012695295
 30
0.0
  0
VERTEX
  8
001
 62
               3
  5
27
 10
287.4528018755027
 20
172.5716301269531
 30
0.0
  0
VERTEX
  8
001
 62
               3
  5
28
 10
284.4528018755027
 20
174.30373012695327
 30
0.0
  0
VERTEX
  8
001
 62
               3
  5
29
 10
281.4528018755027
 20
172.5716301269531
 30
0.0
  0
VERTEX
  8
001
 62
               3
  5
2A
 10
281.4528018755027
 20
169.10753012695295
 30
0.0
  0
VERTEX
  8
001
 62
               3
  5
2B
 10
284.4528018755027
 20
167.37553012695298
 30
0.0
  0
VERTEX
  8
001
 62
               3
  5
2C
 10
287.4528018755027
 20
169.10753012695295
 30
0.0
  0
SEQEND
  8
001
 62
               3
  5
2D
  0
ENDBLK
  8
001
 62
               0
  5
2E
  0
BLOCK
  8
001
 62
               0
  5
30
  2
ETC-2
 70
               0
 10
0.0
 20
0.0
 30
0.0
  3
ETC-2
  0
POLYLINE
  8
001
 62
               3
  5
31
 66
               1
 10
0.0
 20
0.0
 30
0.0
  0
VERTEX
  8
001
 62
               3
  5
32
 10
287.45280187550225
 20
109.10753012695295
 30
0.0
  0
VERTEX
  8
001
 62
               3
  5
33
 10
287.45280187550225
 20
112.5716301269531
 30
0.0
  0
VERTEX
  8
001
 62
               3
  5
34
 10
284.45280187550225
 20
114.30373012695327
 30
0.0
  0
VERTEX
  8
001
 62
               3
  5
35
 10
281.45280187550225
 20
112.5716301269531
 30
0.0
  0
VERTEX
  8
001
 62
               3
  5
36
 10
281.45280187550225
 20
109.10753012695295
 30
0.0
  0
VERTEX
  8
001
 62
               3
  5
37
 10
284.45280187550225
 20
107.37553012695298
 30
0.0
  0
VERTEX
  8
001
 62
               3
  5
38
 10
287.45280187550225
 20
109.10753012695295
 30
0.0
  0
SEQEND
  8
001
 62
               3
  5
39
  0
ENDBLK
  8
001
 62
               0
  5
3A
  0
BLOCK
  8
001
 62
               0
  5
3C
  2
ETC-3
 70
               0
 10
0.0
 20
0.0
 30
0.0
  3
ETC-3
  0
POLYLINE
  8
001
 62
               3
  5
3D
 66
               1
 10
0.0
 20
0.0
 30
0.0
  0
VERTEX
  8
001
 62
               3
  5
3E
 10
287.45280187550225
 20
49.107530126952952
 30
0.0
  0
VERTEX
  8
001
 62
               3
  5
3F
 10
287.45280187550225
 20
52.571630126953096
 30
0.0
  0
VERTEX
  8
001
 62
               3
  5
40
 10
284.45280187550225
 20
54.303730126953269
 30
0.0
  0
VERTEX
  8
001
 62
               3
  5
41
 10
281.45280187550225
 20
52.571630126953096
 30
0.0
  0
VERTEX
  8
001
 62
               3
  5
42
 10
281.45280187550225
 20
49.107530126952952
 30
0.0
  0
VERTEX
  8
001
 62
               3
  5
43
 10
284.45280187550225
 20
47.375530126952981
 30
0.0
  0
VERTEX
  8
001
 62
               3
  5
44
 10
287.45280187550225
 20
49.107530126952952
 30
0.0
  0
SEQEND
  8
001
 62
               3
  5
45
  0
ENDBLK
  8
001
 62
               0
  5
46
  0
BLOCK
  8
001
 62
               0
  5
48
  2
ETC-4
 70
               0
 10
0.0
 20
0.0
 30
0.0
  3
ETC-4
  0
POLYLINE
  8
001
 62
               3
  5
49
 66
               1
 10
0.0
 20
0.0
 30
0.0
  0
VERTEX
  8
001
 62
               3
  5
4A
 10
287.45280187550225
 20
89.107530126952952
 30
0.0
  0
VERTEX
  8
001
 62
               3
  5
4B
 10
287.45280187550225
 20
92.571630126953096
 30
0.0
  0
VERTEX
  8
001
 62
               3
  5
4C
 10
284.45280187550225
 20
94.303730126953269
 30
0.0
  0
VERTEX
  8
001
 62
               3
  5
4D
 10
281.45280187550225
 20
92.571630126953096
 30
0.0
  0
VERTEX
  8
001
 62
               3
  5
4E
 10
281.45280187550225
 20
89.107530126952952
 30
0.0
  0
VERTEX
  8
001
 62
               3
  5
4F
 10
284.45280187550225
 20
87.375530126952981
 30
0.0
  0
VERTEX
  8
001
 62
               3
  5
50
 10
287.45280187550225
 20
89.107530126952952
 30
0.0
  0
SEQEND
  8
001
 62
               3
  5
51
  0
ENDBLK
  8
001
 62
               0
  5
52
  0
BLOCK
  8
001
 62
               0
  5
54
  2
ETC-5
 70
               0
 10
0.0
 20
0.0
 30
0.0
  3
ETC-5
  0
POLYLINE
  8
001
 62
               3
  5
55
 66
               1
 10
0.0
 20
0.0
 30
0.0
  0
VERTEX
  8
001
 62
               3
  5
56
 10
155.20559657395131
 20
314.33963012695312
 30
0.0
  0
VERTEX
  8
001
 62
               3
  5
57
 10
158.95837332368387
 20
320.83963012695312
 30
0.0
  0
VERTEX
  8
001
 62
               3
  5
58
 10
155.20559657395131
 20
327.33963012695312
 30
0.0
  0
VERTEX
  8
001
 62
               3
  5
59
 10
147.70004307448619
 20
327.33963012695312
 30
0.0
  0
VERTEX
  8
001
 62
               3
  5
5A
 10
143.94726632475363
 20
320.83963012695312
 30
0.0
  0
VERTEX
  8
001
 62
               3
  5
5B
 10
147.70004307448619
 20
314.33963012695312
 30
0.0
  0
VERTEX
  8
001
 62
               3
  5
5C
 10
155.20559657395131
 20
314.33963012695312
 30
0.0
  0
SEQEND
  8
001
 62
               3
  5
5D
  0
ENDBLK
  8
001
 62
               0
  5
5E
  0
ENDSEC
  0
SECTION
  2
ENTITIES
  0
INSERT
  8
001
  6
BYBLOCK
 62
               0
  5
5F
  2
ETC-1
 10
0.0
 20
0.0
 30
0.0
  0
INSERT
  8
001
  6
BYBLOCK
 62
               0
  5
60
  2
ETC-2
 10
0.0
 20
0.0
 30
0.0
  0
INSERT
  8
001
  6
BYBLOCK
 62
               0
  5
61
  2
ETC-3
 10
0.0
 20
0.0
 30
0.0
  0
INSERT
  8
001
  6
BYBLOCK
 62
               0
  5
62
  2
ETC-4
 10
0.0
 20
0.0
 30
0.0
  0
INSERT
  8
001
  6
BYBLOCK
 62
               0
  5
63
  2
ETC-5
 10
0.0
 20
0.0
 30
0.0
  0
LINE
  8
001
 62
               3
  5
64
 10
53.45281982421875
 20
30.839630126953125
 30
0.0
 11
138.45281982421875
 21
30.839630126953125
 31
0.0
  0
LINE
  8
001
  6
CENTER
 62
               1
  5
65
 10
223.45281982421875
 20
18.876716613769531
 30
0.0
 11
223.45281982421875
 21
204.72315979003906
 31
0.0
  0
LINE
  8
001
 62
               3
  5
66
 10
164.95281982421875
 20
190.83963012695312
 30
0.0
 11
281.95281982421875
 21
190.83963012695312
 31
0.0
  0
LINE
  8
001
 62
               3
  5
67
 10
96.45281982421875
 20
55.839630126953125
 30
0.0
 11
199.15976927225984
 21
55.839630126953125
 31
0.0
  0
LINE
  8
001
 62
               3
  5
68
 10
53.45281982421875
 20
30.839630126953125
 30
0.0
 11
53.45281982421875
 21
46.200307058581529
 31
0.0
  0
LINE
  8
001
 62
               3
  5
69
 10
162.45281982421875
 20
60.839630126953125
 30
0.0
 11
162.45281982421875
 21
188.33963012695312
 31
0.0
  0
LINE
  8
001
 62
               3
  5
6A
 10
284.45281982421875
 20
185.22712469689128
 30
0.0
 11
284.45281982421875
 21
188.33963012695312
 31
0.0
  0
LINE
  8
001
 62
               3
  5
6B
 10
269.45281982421875
 20
30.839630126953125
 30
0.0
 11
269.45281982421875
 21
58.839630126953125
 31
0.0
  0
LINE
  8
001
 62
               3
  5
6C
 10
66.45281982421875
 20
53.148677965966272
 30
0.0
 11
66.45281982421875
 21
58.839630126953125
 31
0.0
  0
LINE
  8
001
 62
               3
  5
6D
 10
66.45281982421875
 20
58.839630126953125
 30
0.0
 11
93.45281982421875
 21
58.839630126953125
 31
0.0
  0
LINE
  8
001
 62
               3
  5
6E
 10
56.07063823919475
 20
49.175863684839896
 30
0.0
 11
63.83500140924275
 21
50.173121339708359
 31
0.0
  0
LINE
  8
001
 62
               3
  5
6F
 10
144.95281982421875
 20
178.83963012695312
 30
0.0
 11
162.45281982421875
 21
178.83963012695312
 31
0.0
  0
LINE
  8
001
 62
               3
  5
70
 10
143.45281982421875
 20
146.07876854404776
 30
0.0
 11
143.45281982421875
 21
177.33963012695312
 31
0.0
  0
LINE
  8
001
 62
               3
  5
71
 10
142.87417382211675
 20
143.74389620807915
 30
0.0
 11
96.827432035246602
 21
56.549002186133293
 31
0.0
  0
LINE
  8
001
 62
               3
  5
72
 10
246.45281982421875
 20
58.839630126953125
 30
0.0
 11
269.45281982421875
 21
58.839630126953125
 31
0.0
  0
LINE
  8
001
 62
               3
  5
73
 10
202.15565787652349
 20
58.682622258224001
 30
0.0
 11
208.14660158225041
 21
172.99663799568194
 31
0.0
  0
LINE
  8
001
 62
               3
  5
74
 10
233.75903806618709
 20
172.99663799568197
 30
0.0
 11
239.74998177191378
 21
58.682622258224001
 31
0.0
  0
LINE
  8
001
 62
               3
  5
75
 10
242.74587037617744
 20
55.839630126953125
 30
0.0
 11
243.45281982421875
 21
55.839630126953125
 31
0.0
  0
LINE
  8
001
 62
               3
  5
76
 10
243.45281982421875
 20
55.839630126953125
 30
0.0
 11
246.45281982421875
 21
58.839630126953125
 31
0.0
  0
LINE
  8
001
 62
               3
  5
77
 10
280.45281982421875
 20
30.839630126953125
 30
0.0
 11
280.45281982421875
 21
45.095067480414855
 31
0.0
  0
LINE
  8
001
 62
               3
  5
78
 10
280.45281982421875
 20
181.83963012695312
 30
0.0
 11
282.45281982421875
 21
181.83963012695312
 31
0.0
  0
LINE
  8
001
 62
               3
  5
79
 10
280.45281982421875
 20
176.58419277349094
 30
0.0
 11
280.45281982421875
 21
180.36625671386719
 31
0.0
  0
LINE
  8
001
 62
               3
  5
7A
 10
280.45281982421875
 20
116.5841927734914
 30
0.0
 11
280.45281982421875
 21
165.09506748041531
 31
0.0
  0
LINE
  8
001
 62
               3
  5
7B
 10
280.45281982421875
 20
56.584192773491395
 30
0.0
 11
280.45281982421875
 21
85.716140731100921
 31
0.0
  0
LINE
  8
001
  6
CENTER
 62
               1
  5
7C
 10
78.45281982421875
 20
64.377838134765639
 30
0.0
 11
78.45281982421875
 21
20.899974822998047
 31
0.0
  0
LINE
  8
001
  6
CENTER
 62
               1
  5
7D
 10
258.45281982421875
 20
64.377838134765639
 30
0.0
 11
258.45281982421875
 21
22.295253753662109
 31
0.0
  0
LINE
  8
001
  6
CENTER
 62
               1
  5
7E
 10
223.45281982421875
 20
235.69331359863281
 30
0.0
 11
223.45281982421875
 21
403.95149230957031
 31
0.0
  0
LINE
  8
001
  6
CENTER
 62
               1
  5
7F
 10
44.708389282226335
 20
320.83963012695312
 30
0.0
 11
298.01507568359352
 21
320.83963012695312
 31
0.0
  0
LINE
  8
001
 62
               3
  5
80
 10
58.45281982421875
 20
393.83963012695312
 30
0.0
 11
258.45281982421875
 21
393.83963012695312
 31
0.0
  0
LINE
  8
001
 62
               3
  5
81
 10
53.45281982421875
 20
320.83963012695312
 30
0.0
 11
53.45281982421875
 21
388.83963012695312
 31
0.0
  0
LINE
  8
001
 62
               3
  5
82
 10
208.45281982421875
 20
382.25624025808952
 30
0.0
 11
208.45281982421875
 21
388.83963012695312
 31
0.0
  0
LINE
  8
001
 62
               3
  5
83
 10
233.45281982421875
 20
383.50541026252631
 30
0.0
 11
233.45281982421875
 21
388.83963012695312
 31
0.0
  0
LINE
  8
001
 62
               3
  5
84
 10
99.45281982421875
 20
327.83963012695312
 30
0.0
 11
158.55289686586684
 21
327.83963012695312
 31
0.0
  0
LINE
  8
001
 62
               3
  5
85
 10
143.45281982421875
 20
316.83963012695312
 30
0.0
 11
143.45281982421875
 21
324.83963012695312
 31
0.0
  0
LINE
  8
001
 62
               3
  5
86
 10
77.45281982421875
 20
391.83963012695312
 30
0.0
 11
258.45281982421875
 21
391.83963012695312
 31
0.0
  0
LINE
  8
001
 62
               3
  5
87
 10
77.45281982421875
 20
369.83963012695312
 30
0.0
 11
174.25932431922342
 21
369.83963012695312
 31
0.0
  0
LINE
  8
001
 62
               3
  5
88
 10
58.45281982421875
 20
247.83963012695312
 30
0.0
 11
258.45281982421875
 21
247.83963012695312
 31
0.0
  0
LINE
  8
001
 62
               3
  5
89
 10
53.45281982421875
 20
320.83963012695312
 30
0.0
 11
53.45281982421875
 21
252.83963012695312
 31
0.0
  0
LINE
  8
001
 62
               3
  5
8A
 10
208.45281982421875
 20
259.42301999581673
 30
0.0
 11
208.45281982421875
 21
252.83963012695312
 31
0.0
  0
LINE
  8
001
 62
               3
  5
8B
 10
233.45281982421875
 20
258.17384999137994
 30
0.0
 11
233.45281982421875
 21
252.83963012695312
 31
0.0
  0
LINE
  8
001
 62
               3
  5
8C
 10
99.45281982421875
 20
313.83963012695312
 30
0.0
 11
158.55289686586684
 21
313.83963012695312
 31
0.0
  0
LINE
  8
001
 62
               3
  5
8D
 10
77.45281982421875
 20
249.83963012695312
 30
0.0
 11
258.45281982421875
 21
249.83963012695312
 31
0.0
  0
LINE
  8
001
 62
               3
  5
8E
 10
77.45281982421875
 20
271.83963012695312
 30
0.0
 11
174.25932431922342
 21
271.83963012695312
 31
0.0
  0
LINE
  8
001
 62
               3
  5
8F
 10
399.95281982421915
 20
190.83963012695312
 30
0.0
 11
458.45281982421915
 21
190.83963012695312
 31
0.0
  0
LINE
  8
001
 62
               3
  5
90
 10
397.45281982421915
 20
58.839630126953125
 30
0.0
 11
397.45281982421915
 21
188.33963012695312
 31
0.0
  0
LINE
  8
001
 62
               3
  5
91
 10
397.45281982421915
 20
188.33963012695312
 30
0.0
 11
399.95281982421915
 21
190.83963012695312
 31
0.0
  0
LINE
  8
001
 62
               3
  5
92
 10
387.77006120352962
 20
58.839630126953125
 30
0.0
 11
433.45281982421915
 21
58.839630126953125
 31
0.0
  0
LINE
  8
001
 62
               3
  5
93
 10
433.45281982421915
 20
30.839630126953125
 30
0.0
 11
433.45281982421915
 21
176.83963012695312
 31
0.0
  0
LINE
  8
001
 62
               3
  5
94
 10
456.95281982421915
 20
30.839630126953125
 30
0.0
 11
456.95281982421915
 21
190.83963012695312
 31
0.0
  0
LINE
  8
001
 62
               3
  5
95
 10
436.45281982421915
 20
179.83963012695312
 30
0.0
 11
456.95281982421915
 21
179.83963012695312
 31
0.0
  0
LINE
  8
001
 62
               3
  5
96
 10
433.49477993266936
 20
177.33963012695312
 30
0.0
 11
426.95281982421915
 21
177.33963012695312
 31
0.0
  0
LINE
  8
001
 62
               3
  5
97
 10
426.95281982421915
 20
164.33963012695312
 30
0.0
 11
426.95281982421915
 21
177.33963012695312
 31
0.0
  0
LINE
  8
001
 62
               3
  5
98
 10
426.95281982421915
 20
177.33963012695312
 30
0.0
 11
426.45281982421915
 21
176.47363012695314
 31
0.0
  0
LINE
  8
001
 62
               3
  5
99
 10
433.45281982421915
 20
164.33963012695312
 30
0.0
 11
426.95281982421915
 21
164.33963012695312
 31
0.0
  0
LINE
  8
001
 62
               3
  5
9A
 10
426.45281982421915
 20
176.47363012695314
 30
0.0
 11
426.45281982421915
 21
165.20563012695311
 31
0.0
  0
LINE
  8
001
 62
               3
  5
9B
 10
426.45281982421915
 20
165.20563012695311
 30
0.0
 11
426.95281982421915
 21
164.33963012695312
 31
0.0
  0
LINE
  8
001
 62
               3
  5
9C
 10
433.45281982421915
 20
57.339630126953125
 30
0.0
 11
426.95281982421915
 21
57.339630126953125
 31
0.0
  0
LINE
  8
001
 62
               3
  5
9D
 10
426.95281982421915
 20
44.339630126953125
 30
0.0
 11
426.95281982421915
 21
57.339630126953125
 31
0.0
  0
LINE
  8
001
 62
               3
  5
9E
 10
426.95281982421915
 20
57.339630126953125
 30
0.0
 11
426.45281982421915
 21
56.47363012695314
 31
0.0
  0
LINE
  8
001
 62
               3
  5
9F
 10
433.45281982421915
 20
44.339630126953125
 30
0.0
 11
426.95281982421915
 21
44.339630126953125
 31
0.0
  0
LINE
  8
001
 62
               3
  5
A0
 10
426.45281982421915
 20
56.47363012695314
 30
0.0
 11
426.45281982421915
 21
45.20563012695311
 31
0.0
  0
LINE
  8
001
 62
               3
  5
A1
 10
426.45281982421915
 20
45.20563012695311
 30
0.0
 11
426.95281982421915
 21
44.339630126953125
 31
0.0
  0
LINE
  8
001
 62
               3
  5
A2
 10
516.9528198242192
 20
190.83963012695312
 30
0.0
 11
458.45281982421915
 21
190.83963012695312
 31
0.0
  0
LINE
  8
001
 62
               3
  5
A3
 10
519.4528198242192
 20
58.839630126953125
 30
0.0
 11
519.4528198242192
 21
188.33963012695312
 31
0.0
  0
LINE
  8
001
 62
               3
  5
A4
 10
519.4528198242192
 20
188.33963012695312
 30
0.0
 11
516.9528198242192
 21
190.83963012695312
 31
0.0
  0
LINE
  8
001
 62
               3
  5
A5
 10
529.13557844490879
 20
58.839630126953125
 30
0.0
 11
483.45281982421915
 21
58.839630126953125
 31
0.0
  0
LINE
  8
001
 62
               3
  5
A6
 10
483.45281982421915
 20
30.839630126953125
 30
0.0
 11
483.45281982421915
 21
176.83963012695312
 31
0.0
  0
LINE
  8
001
 62
               3
  5
A7
 10
459.95281982421915
 20
30.839630126953125
 30
0.0
 11
459.95281982421915
 21
190.83963012695312
 31
0.0
  0
LINE
  8
001
 62
               3
  5
A8
 10
480.45281982421915
 20
179.83963012695312
 30
0.0
 11
459.95281982421915
 21
179.83963012695312
 31
0.0
  0
LINE
  8
001
 62
               3
  5
A9
 10
385.4528198242192
 20
30.839630126953125
 30
0.0
 11
531.4528198242192
 21
30.839630126953125
 31
0.0
  0
LINE
  8
001
  6
CENTER
 62
               1
  5
AA
 10
458.45281982421915
 20
27.0391845703125
 30
0.0
 11
458.45281982421915
 21
196.38265991210937
 31
0.0
  0
LINE
  8
001
  6
CENTER
 62
               1
  5
AB
 10
67.45281982421875
 20
380.83963012695312
 30
0.0
 11
89.45281982421875
 21
380.83963012695312
 31
0.0
  0
LINE
  8
001
  6
CENTER
 62
               1
  5
AC
 10
78.45281982421875
 20
369.83963012695312
 30
0.0
 11
78.45281982421875
 21
391.83963012695312
 31
0.0
  0
LINE
  8
001
  6
CENTER
 62
               1
  5
AD
 10
247.45281982421875
 20
380.83963012695312
 30
0.0
 11
269.45281982421875
 21
380.83963012695312
 31
0.0
  0
LINE
  8
001
  6
CENTER
 62
               1
  5
AE
 10
258.45281982421875
 20
369.83963012695312
 30
0.0
 11
258.45281982421875
 21
391.83963012695312
 31
0.0
  0
LINE
  8
001
  6
CENTER
 62
               1
  5
AF
 10
247.45281982421875
 20
260.83963012695312
 30
0.0
 11
269.45281982421875
 21
260.83963012695312
 31
0.0
  0
LINE
  8
001
  6
CENTER
 62
               1
  5
B0
 10
258.45281982421875
 20
249.83963012695312
 30
0.0
 11
258.45281982421875
 21
271.83963012695312
 31
0.0
  0
LINE
  8
001
  6
CENTER
 62
               1
  5
B1
 10
67.45281982421875
 20
260.83963012695312
 30
0.0
 11
89.45281982421875
 21
260.83963012695312
 31
0.0
  0
LINE
  8
001
  6
CENTER
 62
               1
  5
B2
 10
78.45281982421875
 20
249.83963012695312
 30
0.0
 11
78.45281982421875
 21
271.83963012695312
 31
0.0
  0
LINE
  8
001
 62
               3
  5
B3
 10
519.4528198242192
 20
175.83963012695312
 30
0.0
 11
531.4528198242192
 21
30.839630126953125
 31
0.0
  0
LINE
  8
001
 62
               3
  5
B4
 10
385.4528198242192
 20
30.839630126953125
 30
0.0
 11
397.45281982421915
 21
175.83963012695312
 31
0.0
  0
LINE
  8
001
  6
CENTER
 62
               1
  5
B5
 10
398.45281982421915
 20
20.934017181396484
 30
0.0
 11
398.45281982421915
 21
65.36602783203125
 31
0.0
  0
LINE
  8
001
  6
CENTER
 62
               1
  5
B6
 10
518.4528198242192
 20
21.271419525146484
 30
0.0
 11
518.4528198242192
 21
65.603828430175781
 31
0.0
  0
LINE
  8
001
 62
               3
  5
B7
 10
164.95281982421875
 20
190.83963012695312
 30
0.0
 11
162.45281982421875
 21
188.33963012695312
 31
0.0
  0
LINE
  8
001
 62
               3
  5
B8
 10
284.45281982421875
 20
188.33963012695312
 30
0.0
 11
281.95281982421875
 21
190.83963012695312
 31
0.0
  0
LINE
  8
001
 62
               3
  5
B9
 10
296.45281982421875
 20
297.83963012695312
 30
0.0
 11
296.45281982421875
 21
319.33963012695312
 31
0.0
  0
LINE
  8
001
 62
               3
  5
BA
 10
279.88862406230851
 20
345.83963012695312
 30
0.0
 11
294.45281982421875
 21
345.83963012695312
 31
0.0
  0
LINE
  8
001
 62
               3
  5
BB
 10
279.88862406230874
 20
295.83963012695312
 30
0.0
 11
294.45281982421875
 21
295.83963012695312
 31
0.0
  0
LINE
  8
001
 62
               3
  5
BC
 10
269.42835679770064
 20
322.33963012695312
 30
0.0
 11
296.45281982421875
 21
322.33963012695312
 31
0.0
  0
LINE
  8
001
 62
               3
  5
BD
 10
269.42835679770064
 20
319.33963012695312
 30
0.0
 11
296.45281982421875
 21
319.33963012695312
 31
0.0
  0
LINE
  8
001
 62
               3
  5
BE
 10
296.45281982421875
 20
322.33963012695312
 30
0.0
 11
296.45281982421875
 21
343.83963012695312
 31
0.0
  0
LINE
  8
001
 62
               3
  5
BF
 10
277.95281982421875
 20
293.43981260931264
 30
0.0
 11
277.95281982421875
 21
289.33963012695312
 31
0.0
  0
LINE
  8
001
 62
               3
  5
C0
 10
290.95281982421875
 20
289.33963012695312
 30
0.0
 11
277.95281982421875
 21
289.33963012695312
 31
0.0
  0
LINE
  8
001
 62
               3
  5
C1
 10
277.95281982421875
 20
289.33963012695312
 30
0.0
 11
278.81881982421874
 21
288.83963012695312
 31
0.0
  0
LINE
  8
001
 62
               3
  5
C2
 10
290.95281982421875
 20
295.83963012695312
 30
0.0
 11
290.95281982421875
 21
289.33963012695312
 31
0.0
  0
LINE
  8
001
 62
               3
  5
C3
 10
278.81881982421874
 20
288.83963012695312
 30
0.0
 11
290.08681982421876
 21
288.83963012695312
 31
0.0
  0
LINE
  8
001
 62
               3
  5
C4
 10
290.08681982421876
 20
288.83963012695312
 30
0.0
 11
290.95281982421875
 21
289.33963012695312
 31
0.0
  0
LINE
  8
001
 62
               3
  5
C5
 10
148.45281982421875
 20
30.839630126953125
 30
0.0
 11
148.45281982421875
 21
36.839630126953125
 31
0.0
  0
LINE
  8
001
 62
               3
  5
C6
 10
138.45281982421875
 20
30.839630126953125
 30
0.0
 11
138.45281982421875
 21
36.839630126953125
 31
0.0
  0
LINE
  8
001
 62
               3
  5
C7
 10
138.45281982421875
 20
36.839630126953125
 30
0.0
 11
148.45281982421875
 21
36.839630126953125
 31
0.0
  0
LINE
  8
001
 62
               3
  5
C8
 10
148.45281982421875
 20
30.839630126953125
 30
0.0
 11
296.45281982421875
 21
30.839630126953125
 31
0.0
  0
LINE
  8
001
 62
               3
  5
C9
 10
433.45281982421915
 20
117.33963012695312
 30
0.0
 11
426.95281982421915
 21
117.33963012695312
 31
0.0
  0
LINE
  8
001
 62
               3
  5
CA
 10
426.95281982421915
 20
104.33963012695312
 30
0.0
 11
426.95281982421915
 21
117.33963012695312
 31
0.0
  0
LINE
  8
001
 62
               3
  5
CB
 10
426.95281982421915
 20
117.33963012695312
 30
0.0
 11
426.45281982421915
 21
116.47363012695314
 31
0.0
  0
LINE
  8
001
 62
               3
  5
CC
 10
433.45281982421915
 20
104.33963012695312
 30
0.0
 11
426.95281982421915
 21
104.33963012695312
 31
0.0
  0
LINE
  8
001
 62
               3
  5
CD
 10
426.45281982421915
 20
116.47363012695314
 30
0.0
 11
426.45281982421915
 21
105.20563012695311
 31
0.0
  0
LINE
  8
001
 62
               3
  5
CE
 10
426.45281982421915
 20
105.20563012695311
 30
0.0
 11
426.95281982421915
 21
104.33963012695312
 31
0.0
  0
LINE
  8
001
 62
               3
  5
CF
 10
456.95281982421915
 20
174.83963012695312
 30
0.0
 11
459.95281982421915
 21
174.83963012695312
 31
0.0
  0
LINE
  8
001
 62
               3
  5
D0
 10
456.95281982421915
 20
166.83963012695312
 30
0.0
 11
459.95281982421915
 21
166.83963012695312
 31
0.0
  0
LINE
  8
001
 62
               3
  5
D1
 10
456.95281982421915
 20
174.21463012695312
 30
0.0
 11
459.95281982421915
 21
174.21463012695312
 31
0.0
  0
LINE
  8
001
 62
               3
  5
D2
 10
456.95281982421915
 20
167.46463012695312
 30
0.0
 11
459.95281982421915
 21
167.46463012695312
 31
0.0
  0
LINE
  8
001
 62
               3
  5
D3
 10
456.95281982421915
 20
114.83963012695312
 30
0.0
 11
459.95281982421915
 21
114.83963012695312
 31
0.0
  0
LINE
  8
001
 62
               3
  5
D4
 10
456.95281982421915
 20
106.83963012695312
 30
0.0
 11
459.95281982421915
 21
106.83963012695312
 31
0.0
  0
LINE
  8
001
 62
               3
  5
D5
 10
456.95281982421915
 20
114.21463012695312
 30
0.0
 11
459.95281982421915
 21
114.21463012695312
 31
0.0
  0
LINE
  8
001
 62
               3
  5
D6
 10
456.95281982421915
 20
107.46463012695312
 30
0.0
 11
459.95281982421915
 21
107.46463012695312
 31
0.0
  0
LINE
  8
001
 62
               3
  5
D7
 10
456.95281982421915
 20
54.839630126953125
 30
0.0
 11
459.95281982421915
 21
54.839630126953125
 31
0.0
  0
LINE
  8
001
 62
               3
  5
D8
 10
456.95281982421915
 20
46.839630126953125
 30
0.0
 11
459.95281982421915
 21
46.839630126953125
 31
0.0
  0
LINE
  8
001
 62
               3
  5
D9
 10
456.95281982421915
 20
54.214630126953125
 30
0.0
 11
459.95281982421915
 21
54.214630126953125
 31
0.0
  0
LINE
  8
001
 62
               3
  5
DA
 10
456.95281982421915
 20
47.464630126953125
 30
0.0
 11
459.95281982421915
 21
47.464630126953125
 31
0.0
  0
LINE
  8
001
 62
               3
  5
DB
 10
293.45029942324004
 20
171.07509237256954
 30
0.0
 11
296.45281982421875
 21
30.839630126953125
 31
0.0
  0
LINE
  8
001
 62
               3
  5
DC
 10
280.45281982421875
 20
95.963119522805329
 30
0.0
 11
280.45281982421875
 21
105.09506748041485
 31
0.0
  0
LINE
  8
001
 62
               3
  5
DD
 10
424.95281982421915
 20
84.339630126953125
 30
0.0
 11
424.95281982421915
 21
97.339630126953125
 31
0.0
  0
LINE
  8
001
 62
               3
  5
DE
 10
424.95281982421915
 20
97.339630126953125
 30
0.0
 11
417.45281213191123
 21
97.339630126953125
 31
0.0
  0
LINE
  8
001
 62
               3
  5
DF
 10
417.45281213191123
 20
84.339630126953125
 30
0.0
 11
417.45281213191123
 21
97.339630126953125
 31
0.0
  0
LINE
  8
001
 62
               3
  5
E0
 10
417.45281213191123
 20
97.339630126953125
 30
0.0
 11
416.95281213191123
 21
96.47363012695314
 31
0.0
  0
LINE
  8
001
 62
               3
  5
E1
 10
424.95281982421915
 20
84.339630126953125
 30
0.0
 11
417.45281213191123
 21
84.339630126953125
 31
0.0
  0
LINE
  8
001
 62
               3
  5
E2
 10
416.95281213191123
 20
96.47363012695314
 30
0.0
 11
416.95281213191123
 21
85.20563012695311
 31
0.0
  0
LINE
  8
001
 62
               3
  5
E3
 10
416.95281213191123
 20
85.20563012695311
 30
0.0
 11
417.45281213191123
 21
84.339630126953125
 31
0.0
  0
LINE
  8
001
 62
               3
  5
E4
 10
456.95281982421915
 20
94.839630126953125
 30
0.0
 11
459.95281982421915
 21
94.839630126953125
 31
0.0
  0
LINE
  8
001
 62
               3
  5
E5
 10
456.95281982421915
 20
86.839630126953125
 30
0.0
 11
459.95281982421915
 21
86.839630126953125
 31
0.0
  0
LINE
  8
001
 62
               3
  5
E6
 10
456.95281982421915
 20
94.214630126953125
 30
0.0
 11
459.95281982421915
 21
94.214630126953125
 31
0.0
  0
LINE
  8
001
 62
               3
  5
E7
 10
456.95281982421915
 20
87.464630126953125
 30
0.0
 11
459.95281982421915
 21
87.464630126953125
 31
0.0
  0
LINE
  8
001
 62
               3
  5
E8
 10
424.95281982421915
 20
94.839630126953125
 30
0.0
 11
433.45281982421915
 21
94.839630126953125
 31
0.0
  0
LINE
  8
001
 62
               3
  5
E9
 10
424.95281982421915
 20
86.839630126953125
 30
0.0
 11
433.45281982421915
 21
86.839630126953125
 31
0.0
  0
LINE
  8
001
 62
               3
  5
EA
 10
424.95281982421915
 20
94.214630126953125
 30
0.0
 11
433.45281982421915
 21
94.214630126953125
 31
0.0
  0
LINE
  8
001
 62
               3
  5
EB
 10
424.95281982421915
 20
87.464630126953125
 30
0.0
 11
433.45281982421915
 21
87.464630126953125
 31
0.0
  0
LINE
  8
001
 62
               3
  5
EC
 10
280.45281982421875
 20
319.33963012695312
 30
0.0
 11
280.45281982421875
 21
322.33963012695312
 31
0.0
  0
LINE
  8
001
 62
               3
  5
ED
 10
288.45281982421875
 20
319.33963012695312
 30
0.0
 11
288.45281982421875
 21
322.33963012695312
 31
0.0
  0
LINE
  8
001
 62
               3
  5
EE
 10
281.07781982421875
 20
319.33963012695312
 30
0.0
 11
281.07781982421875
 21
322.33963012695312
 31
0.0
  0
LINE
  8
001
 62
               3
  5
EF
 10
287.82781982421875
 20
319.33963012695312
 30
0.0
 11
287.82781982421875
 21
322.33963012695312
 31
0.0
  0
LINE
  8
001
 62
               3
  5
F0
 10
277.95281982421875
 20
287.33963012695312
 30
0.0
 11
290.95281982421875
 21
287.33963012695312
 31
0.0
  0
LINE
  8
001
 62
               3
  5
F1
 10
277.95281982421875
 20
287.33963012695312
 30
0.0
 11
277.95281982421875
 21
279.83962243464521
 31
0.0
  0
LINE
  8
001
 62
               3
  5
F2
 10
290.95281982421875
 20
279.83962243464521
 30
0.0
 11
277.95281982421875
 21
279.83962243464521
 31
0.0
  0
LINE
  8
001
 62
               3
  5
F3
 10
277.95281982421875
 20
279.83962243464521
 30
0.0
 11
278.81881982421874
 21
279.33962243464521
 31
0.0
  0
LINE
  8
001
 62
               3
  5
F4
 10
290.95281982421875
 20
287.33962243464521
 30
0.0
 11
290.95281982421875
 21
279.83962243464521
 31
0.0
  0
LINE
  8
001
 62
               3
  5
F5
 10
278.81881982421874
 20
279.33962243464521
 30
0.0
 11
290.08681982421876
 21
279.33962243464521
 31
0.0
  0
LINE
  8
001
 62
               3
  5
F6
 10
290.08681982421876
 20
279.33962243464521
 30
0.0
 11
290.95281982421875
 21
279.83962243464521
 31
0.0
  0
LINE
  8
001
 62
               3
  5
F7
 10
280.45281982421875
 20
287.33963012695312
 30
0.0
 11
280.45281982421875
 21
288.83963012695312
 31
0.0
  0
LINE
  8
001
 62
               3
  5
F8
 10
288.45281982421875
 20
287.33963012695312
 30
0.0
 11
288.45281982421875
 21
288.83963012695312
 31
0.0
  0
LINE
  8
001
 62
               3
  5
F9
 10
281.07781982421875
 20
287.33963012695312
 30
0.0
 11
281.07781982421875
 21
288.83963012695312
 31
0.0
  0
LINE
  8
001
 62
               3
  5
FA
 10
287.82781982421875
 20
287.33963012695312
 30
0.0
 11
287.82781982421875
 21
288.83963012695312
 31
0.0
  0
LINE
  8
001
 62
               3
  5
FB
 10
143.95281982421875
 20
182.83963012695312
 30
0.0
 11
158.95281982421875
 21
182.83963012695312
 31
0.0
  0
LINE
  8
001
 62
               3
  5
FC
 10
150.45281982421875
 20
188.33963012695312
 30
0.0
 11
152.45281982421875
 21
188.33963012695312
 31
0.0
  0
LINE
  8
001
 62
               3
  5
FD
 10
147.45281982421875
 20
178.83963012695312
 30
0.0
 11
147.45281982421875
 21
182.83963012695312
 31
0.0
  0
LINE
  8
001
 62
               3
  5
FE
 10
155.45281982421875
 20
178.83963012695312
 30
0.0
 11
155.45281982421875
 21
182.83963012695312
 31
0.0
  0
LINE
  8
001
 62
               3
  5
FF
 10
148.07781982421875
 20
178.83963012695312
 30
0.0
 11
148.07781982421875
 21
182.83963012695312
 31
0.0
  0
LINE
  8
001
 62
               3
  5
100
 10
154.82781982421875
 20
178.83963012695312
 30
0.0
 11
154.82781982421875
 21
182.83963012695312
 31
0.0
  0
LINE
  8
001
 62
               3
  5
101
 10
143.95281982421875
 20
182.83963012695312
 30
0.0
 11
143.95281982421875
 21
187.1935047523481
 31
0.0
  0
LINE
  8
001
 62
               3
  5
102
 10
158.95281982421875
 20
182.83963012695312
 30
0.0
 11
158.95281982421875
 21
187.1935047523481
 31
0.0
  0
LINE
  8
001
 62
               3
  5
103
 10
152.45281982421875
 20
188.33963012695312
 30
0.0
 11
158.95281982421875
 21
187.1935047523481
 31
0.0
  0
LINE
  8
001
 62
               3
  5
104
 10
150.45281982421875
 20
188.33963012695312
 30
0.0
 11
143.95281982421875
 21
187.1935047523481
 31
0.0
  0
ARC
  8
001
 62
               3
  5
105
 10
157.45281982421875
 20
60.839630126953125
 30
0.0
 40
5.0
 50
269.99999999999937
 51
0.0
  0
ARC
  8
001
 62
               3
  5
106
 10
56.45281982421875
 20
46.200307058581529
 30
0.0
 40
3.0
 50
97.319019375590514
 51
179.9999999999996
  0
ARC
  8
001
 62
               3
  5
107
 10
63.45281982421875
 20
53.148677965966272
 30
0.0
 40
3.0
 50
277.31901937559007
 51
0.0
  0
ARC
  8
001
 62
               3
  5
108
 10
96.45281982421875
 20
58.839630126953125
 30
0.0
 40
3.0
 50
179.9999999999996
 51
269.99999999999937
  0
ARC
  8
001
 62
               3
  5
109
 10
199.15976927225984
 20
58.839630126953125
 30
0.0
 40
2.9999999999999938
 50
269.99999999999937
 51
356.99999999999795
  0
ARC
  8
001
 62
               3
  5
10A
 10
242.74587037617744
 20
58.839630126953125
 30
0.0
 40
3.0
 50
183.00000000000085
 51
269.99999999999937
  0
ARC
  8
001
 62
               3
  5
10B
 10
223.45281982421875
 20
320.83963012695312
 30
0.0
 40
46.0
 50
1.8686719043484061
 51
358.13132809565076
  0
ARC
  8
001
 62
               3
  5
10C
 10
58.45281982421875
 20
388.83963012695312
 30
0.0
 40
5.0
 50
89.999999999999801
 51
179.9999999999996
  0
ARC
  8
001
 62
               3
  5
10D
 10
258.45281982421875
 20
380.83963012695312
 30
0.0
 40
13.0
 50
308.05844442247991
 51
89.999999999999801
  0
ARC
  8
001
 62
               3
  5
10E
 10
269.5491891648544
 20
366.66674801158206
 30
0.0
 40
4.9999999999999956
 50
128.05844442248193
 51
208.44196184956036
  0
ARC
  8
001
 62
               3
  5
10F
 10
77.45281982421875
 20
380.83963012695312
 30
0.0
 40
11.0
 50
89.999999999999801
 51
269.99999999999937
  0
ARC
  8
001
 62
               3
  5
110
 10
82.45281982421875
 20
380.83963012695312
 30
0.0
 40
11.0
 50
269.99999999999937
 51
89.999999999999801
  0
ARC
  8
001
 62
               3
  5
111
 10
211.45281982421875
 20
388.83963012695312
 30
0.0
 40
3.0
 50
89.999999999999801
 51
179.9999999999996
  0
ARC
  8
001
 62
               3
  5
112
 10
230.45281982421875
 20
388.83963012695312
 30
0.0
 40
3.0
 50
0.0
 51
89.999999999999801
  0
ARC
  8
001
 62
               3
  5
113
 10
258.45281982421875
 20
380.83963012695312
 30
0.0
 40
11.0
 50
296.99930900077425
 51
182.48781667216673
  0
ARC
  8
001
 62
               3
  5
114
 10
244.46601518560692
 20
380.23193283280989
 30
0.0
 40
2.9999999999999996
 50
250.51605029496611
 51
2.4878166721679511
  0
ARC
  8
001
 62
               3
  5
115
 10
264.80853637992891
 20
368.36546213612201
 30
0.0
 40
3.0000000000000004
 50
116.99930900077285
 51
228.97107537797606
  0
ARC
  8
001
 62
               3
  5
116
 10
58.45281982421875
 20
252.83963012695312
 30
0.0
 40
5.0
 50
179.9999999999996
 51
269.99999999999937
  0
ARC
  8
001
 62
               3
  5
117
 10
258.45281982421875
 20
260.83963012695312
 30
0.0
 40
13.00000000000002
 50
269.99999999999937
 51
51.941555577519296
  0
ARC
  8
001
 62
               3
  5
118
 10
269.5491891648544
 20
275.01251224232419
 30
0.0
 40
4.9999999999999964
 50
151.55803815043885
 51
231.94155557751728
  0
ARC
  8
001
 62
               3
  5
119
 10
77.45281982421875
 20
260.83963012695312
 30
0.0
 40
11.0
 50
89.999999999999716
 51
269.99999999999937
  0
ARC
  8
001
 62
               3
  5
11A
 10
82.45281982421875
 20
260.83963012695312
 30
0.0
 40
11.0
 50
269.99999999999937
 51
89.999999999999801
  0
ARC
  8
001
 62
               3
  5
11B
 10
211.45281982421875
 20
252.83963012695312
 30
0.0
 40
3.0
 50
179.9999999999996
 51
269.99999999999937
  0
ARC
  8
001
 62
               3
  5
11C
 10
230.45281982421875
 20
252.83963012695312
 30
0.0
 40
3.0
 50
269.99999999999937
 51
0.0
  0
ARC
  8
001
 62
               3
  5
11D
 10
258.45281982421875
 20
260.83963012695312
 30
0.0
 40
11.000000000000016
 50
177.5121833278325
 51
63.000690999224936
  0
ARC
  8
001
 62
               3
  5
11E
 10
244.46601518560692
 20
261.44732742109636
 30
0.0
 40
3.0000000000000098
 50
357.51218332783122
 51
109.48394970503308
  0
ARC
  8
001
 62
               3
  5
11F
 10
264.80853637992891
 20
273.31379811778424
 30
0.0
 40
2.9999999999999969
 50
131.02892462202314
 51
243.00069099922632
  0
ARC
  8
001
 62
               3
  5
120
 10
436.45281982421915
 20
176.83963012695312
 30
0.0
 40
3.0
 50
89.999999999999801
 51
179.9999999999996
  0
ARC
  8
001
 62
               3
  5
121
 10
480.45281982421915
 20
176.83963012695312
 30
0.0
 40
3.0
 50
0.0
 51
89.999999999999801
  0
ARC
  8
001
 62
               3
  5
122
 10
144.95281982421875
 20
177.33963012695312
 30
0.0
 40
1.5
 50
89.999999999999801
 51
179.9999999999996
  0
ARC
  8
001
 62
               3
  5
123
 10
138.45281982421875
 20
146.07876854404776
 30
0.0
 40
5.0
 50
332.16191880286448
 51
0.0
  0
ARC
  8
001
 62
               3
  5
124
 10
92.406078037348379
 20
58.883874522101905
 30
0.0
 40
5.0000000000000009
 50
322.49368411425831
 51
332.1619188028647
  0
ARC
  8
001
 62
               3
  5
125
 10
294.45281982421875
 20
343.83963012695312
 30
0.0
 40
2.0
 50
0.0
 51
89.999999999999801
  0
ARC
  8
001
 62
               3
  5
126
 10
294.45281982421875
 20
297.83963012695312
 30
0.0
 40
2.0
 50
270.00000000000102
 51
0.0
  0
ARC
  8
001
 62
               3
  5
127
 10
279.88862406230874
 20
348.83963012695312
 30
0.0
 40
3.0
 50
253.55242552050061
 51
269.99999999999835
  0
ARC
  8
001
 62
               3
  5
128
 10
279.88862406230874
 20
292.83963012695312
 30
0.0
 40
3.0000000000000013
 50
89.999999999998721
 51
106.4475744794986
  0
ARC
  8
001
 62
               3
  5
129
 10
223.45281982421875
 20
320.83963012695312
 30
0.0
 40
60.999999999999979
 50
1.4090546389397147
 51
45.333588352240277
  0
ARC
  8
001
 62
               3
  5
12A
 10
174.25932431922342
 20
276.83963012695312
 30
0.0
 40
5.000000000000008
 50
269.99999999999937
 51
41.810314895778113
  0
ARC
  8
001
 62
               3
  5
12B
 10
174.25932431922342
 20
364.83963012695312
 30
0.0
 40
5.0
 50
318.1896851042211
 51
89.999999999999801
  0
ARC
  8
001
 62
               3
  5
12C
 10
205.45281982421875
 20
382.25624025808952
 30
0.0
 40
3.0
 50
286.33482278068544
 51
0.0
  0
ARC
  8
001
 62
               3
  5
12D
 10
236.45281982421875
 20
383.50541026252631
 30
0.0
 40
3.0000000000000138
 50
179.9999999999996
 51
258.28023969421071
  0
ARC
  8
001
 62
               3
  5
12E
 10
236.45281982421875
 20
258.17384999137994
 30
0.0
 40
3.0
 50
101.7197603057885
 51
179.9999999999996
  0
ARC
  8
001
 62
               3
  5
12F
 10
205.45281982421875
 20
259.42301999581673
 30
0.0
 40
2.9999999999999849
 50
0.0
 51
73.665177219313762
  0
ARC
  8
001
 62
               3
  5
130
 10
267.41610306655798
 20
245.47400171151435
 30
0.0
 40
32.000000000000007
 50
91.937023315272029
 51
167.85147890613055
  0
ARC
  8
001
 62
               3
  5
131
 10
233.19991511340231
 20
252.83963012695312
 30
0.0
 40
2.9999999999999982
 50
269.99999999999937
 51
347.85147890613018
  0
ARC
  8
001
 62
               3
  5
132
 10
223.45281982421875
 20
320.83963012695312
 30
0.0
 40
61.0
 50
314.66641164775888
 51
358.59094536105948
  0
ARC
  8
001
 62
               3
  5
133
 10
267.41610306655798
 20
396.2052585423919
 30
0.0
 40
31.999999999999982
 50
192.14852109386851
 51
268.06297668472718
  0
ARC
  8
001
 62
               3
  5
134
 10
233.19991511340231
 20
388.83963012695312
 30
0.0
 40
3.0
 50
12.148521093868993
 51
89.999999999999801
  0
ARC
  8
001
 62
               3
  5
135
 10
223.45281982421875
 20
320.83963012695312
 30
0.0
 40
61.0
 50
74.153537320700906
 51
285.84646267929827
  0
ARC
  8
001
 62
               3
  5
136
 10
158.55289686586684
 20
332.83963012695312
 30
0.0
 40
4.9999999999999964
 50
269.99999999999937
 51
349.52431830360905
  0
ARC
  8
001
 62
               3
  5
137
 10
158.55289686586684
 20
308.83963012695312
 30
0.0
 40
5.0
 50
10.475681696390156
 51
89.999999999999801
  0
CIRCLE
  8
001
 62
               3
  5
138
 10
284.4528018755027
 20
170.83963012695312
 30
0.0
 40
6.5
  0
CIRCLE
  8
001
 62
               3
  5
139
 10
284.45280187550225
 20
110.83963012695312
 30
0.0
 40
6.5
  0
CIRCLE
  8
001
 62
               3
  5
13A
 10
284.45280187550225
 20
50.839630126953125
 30
0.0
 40
6.5
  0
CIRCLE
  8
001
 62
               3
  5
13B
 10
78.45281982421875
 20
380.83963012695312
 30
0.0
 40
5.5
  0
CIRCLE
  8
001
 62
               3
  5
13C
 10
78.45281982421875
 20
260.83963012695312
 30
0.0
 40
5.5
  0
CIRCLE
  8
001
 62
               3
  5
13D
 10
258.45281982421875
 20
380.83963012695312
 30
0.0
 40
5.5
  0
CIRCLE
  8
001
 62
               3
  5
13E
 10
258.45281982421875
 20
260.83963012695312
 30
0.0
 40
5.5
  0
ARC
  8
001
 62
               3
  5
13F
 10
282.45281982421875
 20
170.83963012695312
 30
0.0
 40
11.0
 50
1.2265475807379571
 51
89.999999999999801
  0
ARC
  8
001
 62
               3
  5
140
 10
289.45281982421875
 20
185.22712469689128
 30
0.0
 40
5.0000000000000089
 50
179.9999999999996
 51
244.0555202276295
  0
CIRCLE
  8
001
 62
               3
  5
141
 10
284.45280187550225
 20
90.839630126953125
 30
0.0
 40
6.5
  0
CIRCLE
  8
001
 62
               3
  5
142
 10
151.45281982421875
 20
320.83963012695312
 30
0.0
 40
1.0
  0
ARC
  8
001
 62
               3
  5
143
 10
146.45281982421875
 20
324.83963012695312
 30
0.0
 40
3.0
 50
89.999999999999801
 51
179.9999999999996
  0
ARC
  8
001
 62
               3
  5
144
 10
146.45281982421875
 20
316.83963012695312
 30
0.0
 40
3.0
 50
179.9999999999996
 51
269.99999999999937
  0
ARC
  8
001
 62
               3
  5
145
 10
99.45281982421875
 20
330.83963012695312
 30
0.0
 40
3.0
 50
179.9999999999996
 51
269.99999999999937
  0
ARC
  8
001
 62
               3
  5
146
 10
99.45281982421875
 20
310.83963012695312
 30
0.0
 40
3.0
 50
89.999999999999801
 51
179.9999999999996
  0
TEXT
  8
001
  5
147
 10
413.35995047433033
 20
286.23606872558594
 30
0.0
 40
20.0
  1
US-92BC
  0
LINE
  8
001
  6
DASHED
  5
148
 10
269.45281982421875
 20
190.83963012695312
 30
0.0
 11
269.45281982421875
 21
30.839630126953125
 31
0.0
  0
LINE
  8
001
  6
DASHED
  5
149
 10
177.45281982421875
 20
190.83963012695312
 30
0.0
 11
177.45281982421875
 21
30.839630126953125
 31
0.0
  0
LINE
  8
001
  6
DASHED
  5
14A
 10
53.45281982421875
 20
36.839630126953125
 30
0.0
 11
177.45281982421875
 21
36.839630126953125
 31
0.0
  0
LINE
  8
001
  5
14B
 10
459.95281982421915
 20
36.839630126953125
 30
0.0
 11
456.95281982421915
 21
36.839630126953125
 31
0.0
  0
LINE
  8
001
  6
DASHED
  5
14C
 10
138.45281982421875
 20
315.83963012695312
 30
0.0
 11
53.45281982421875
 21
315.83963012695312
 31
0.0
  0
LINE
  8
001
  6
DASHED
  5
14D
 10
138.45281982421875
 20
315.83963012695312
 30
0.0
 11
138.45281982421875
 21
247.83963012695312
 31
0.0
  0
LINE
  8
001
  6
DASHED
  5
14E
 10
148.45281982421875
 20
315.83963012695312
 30
0.0
 11
148.45281982421875
 21
247.83963012695312
 31
0.0
  0
LINE
  8
001
  6
DASHED
  5
14F
 10
148.45281982421875
 20
315.83963012695312
 30
0.0
 11
177.72536636352405
 21
315.83963012695312
 31
0.0
  0
LINE
  8
001
  6
DASHED
  5
150
 10
138.45281982421875
 20
325.83963012695312
 30
0.0
 11
138.45281982421875
 21
393.83963012695312
 31
0.0
  0
LINE
  8
001
  6
DASHED
  5
151
 10
138.45281982421875
 20
325.83963012695312
 30
0.0
 11
53.45281982421875
 21
325.83963012695312
 31
0.0
  0
LINE
  8
001
  6
DASHED
  5
152
 10
148.45281982421875
 20
325.83963012695312
 30
0.0
 11
148.45281982421875
 21
393.83963012695312
 31
0.0
  0
LINE
  8
001
  6
DASHED
  5
153
 10
148.45281982421875
 20
325.83963012695312
 30
0.0
 11
177.72536636352405
 21
325.83963012695312
 31
0.0
  0
TEXT
  8
001
  5
154
 10
413.35995047433033
 20
266.23606872558594
 30
0.0
 40
20.0
  1
'03.3.19
 41
0.9747899473012299
  0
ENDSEC
  0
EOF
