  0
SECTION
  2
HEADER
  9
$ACADVER
  1
AC1009
  9
$DWGCODEPAGE
  3
dos932
  9
$INSBASE
 10
0.0
 20
0.0
 30
0.0
  9
$EXTMIN
 10
55.20147705078125
 20
32.9583740234375
 30
1.0000000000000000E+20
  9
$EXTMAX
 10
509.3359375
 20
456.44491577148437
 30
-1.0000000000000000E+20
  9
$LIMMIN
 10
0.0
 20
0.0
  9
$LIMMAX
 10
12.0
 20
9.0
  9
$ORTHOMODE
 70
               0
  9
$REGENMODE
 70
               1
  9
$FILLMODE
 70
               1
  9
$QTEXTMODE
 70
               0
  9
$MIRRTEXT
 70
               1
  9
$DRAGMODE
 70
               2
  9
$LTSCALE
 40
7.5689076741536461
  9
$OSMODE
 70
               0
  9
$ATTMODE
 70
               1
  9
$TEXTSIZE
 40
3.2000000000000002
  9
$TRACEWID
 40
0.05
  9
$TEXTSTYLE
  7
STANDARD
  9
$CLAYER
  8
0
  9
$CELTYPE
  6
CONTINUOUS
  9
$CECOLOR
 62
             256
  9
$DIMSCALE
 40
1.0
  9
$DIMASZ
 40
0.18
  9
$DIMEXO
 40
0.0625
  9
$DIMDLI
 40
0.38
  9
$DIMRND
 40
0.0
  9
$DIMDLE
 40
0.0
  9
$DIMEXE
 40
0.18
  9
$DIMTP
 40
0.0
  9
$DIMTM
 40
0.0
  9
$DIMTXT
 40
0.18
  9
$DIMCEN
 40
0.09
  9
$DIMTSZ
 40
0.0
  9
$DIMTOL
 70
               0
  9
$DIMLIM
 70
               0
  9
$DIMTIH
 70
               1
  9
$DIMTOH
 70
               1
  9
$DIMSE1
 70
               0
  9
$DIMSE2
 70
               0
  9
$DIMTAD
 70
               0
  9
$DIMZIN
 70
               0
  9
$DIMBLK
  1

  9
$DIMASO
 70
               1
  9
$DIMSHO
 70
               1
  9
$DIMPOST
  1

  9
$DIMAPOST
  1

  9
$DIMALT
 70
               0
  9
$DIMALTD
 70
               2
  9
$DIMALTF
 40
25.399999999999999
  9
$DIMLFAC
 40
1.0
  9
$DIMTOFL
 70
               0
  9
$DIMTVP
 40
0.0
  9
$DIMTIX
 70
               0
  9
$DIMSOXD
 70
               0
  9
$DIMSAH
 70
               0
  9
$DIMBLK1
  1

  9
$DIMBLK2
  1

  9
$DIMSTYLE
  2
STANDARD
  9
$DIMCLRD
 70
               0
  9
$DIMCLRE
 70
               0
  9
$DIMCLRT
 70
               0
  9
$DIMTFAC
 40
1.0
  9
$DIMGAP
 40
0.09
  9
$LUNITS
 70
               2
  9
$LUPREC
 70
               4
  9
$AXISMODE
 70
               0
  9
$AXISUNIT
 10
0.0
 20
0.0
  9
$SKETCHINC
 40
0.1
  9
$FILLETRAD
 40
0.0
  9
$AUNITS
 70
               0
  9
$AUPREC
 70
               0
  9
$MENU
  1
acad
  9
$ELEVATION
 40
0.0
  9
$PELEVATION
 40
0.0
  9
$THICKNESS
 40
0.0
  9
$LIMCHECK
 70
               0
  9
$BLIPMODE
 70
               1
  9
$CHAMFERA
 40
0.0
  9
$CHAMFERB
 40
0.0
  9
$SKPOLY
 70
               0
  9
$TDCREATE
 40
0.000000000
  9
$TDUPDATE
 40
0.000000000
  9
$TDINDWG
 40
0.0000000000
  9
$TDUSRTIMER
 40
0.0000000000
  9
$USRTIMER
 70
               1
  9
$ANGBASE
 50
0.0
  9
$ANGDIR
 70
               0
  9
$PDMODE
 70
               0
  9
$PDSIZE
 40
0.0
  9
$PLINEWID
 40
0.0
  9
$COORDS
 70
               1
  9
$SPLFRAME
 70
               0
  9
$SPLINETYPE
 70
               6
  9
$SPLINESEGS
 70
               8
  9
$ATTDIA
 70
               0
  9
$ATTREQ
 70
               1
  9
$HANDLING
 70
               1
  9
$HANDSEED
  5
242
  9
$SURFTAB1
 70
               6
  9
$SURFTAB2
 70
               6
  9
$SURFTYPE
 70
               6
  9
$SURFU
 70
               6
  9
$SURFV
 70
               6
  9
$UCSNAME
  2

  9
$UCSORG
 10
0.0
 20
0.0
 30
0.0
  9
$UCSXDIR
 10
1.0
 20
0.0
 30
0.0
  9
$UCSYDIR
 10
0.0
 20
1.0
 30
0.0
  9
$PUCSNAME
  2

  9
$PUCSORG
 10
0.0
 20
0.0
 30
0.0
  9
$PUCSXDIR
 10
1.0
 20
0.0
 30
0.0
  9
$PUCSYDIR
 10
0.0
 20
1.0
 30
0.0
  9
$USERI1
 70
               0
  9
$USERI2
 70
               0
  9
$USERI3
 70
               0
  9
$USERI4
 70
               0
  9
$USERI5
 70
               0
  9
$USERR1
 40
0.0
  9
$USERR2
 40
0.0
  9
$USERR3
 40
0.0
  9
$USERR4
 40
0.0
  9
$USERR5
 40
0.0
  9
$WORLDVIEW
 70
               1
  9
$SHADEDGE
 70
               3
  9
$SHADEDIF
 70
              70
  9
$TILEMODE
 70
               1
  9
$MAXACTVP
 70
              16
  9
$PINSBASE
 10
0.0
 20
0.0
 30
0.0
  9
$PLIMCHECK
 70
               0
  9
$PEXTMIN
 10
1.0000000000000000E+20
 20
1.0000000000000000E+20
 30
1.0000000000000000E+20
  9
$PEXTMAX
 10
-1.0000000000000000E+20
 20
-1.0000000000000000E+20
 30
-1.0000000000000000E+20
  9
$PLIMMIN
 10
0.0
 20
0.0
  9
$PLIMMAX
 10
12.0
 20
9.0
  9
$UNITMODE
 70
               0
  9
$VISRETAIN
 70
               0
  9
$PLINEGEN
 70
               0
  9
$PSLTSCALE
 70
               1
  9
$TREEDEPTH
 70
            3020
  0
ENDSEC
  0
SECTION
  2
TABLES
  0
TABLE
  2
VPORT
 70
               1
  0
VPORT
  2
*ACTIVE
 70
               0
 10
0.0
 20
0.0
 11
1.0
 21
1.0
 12
282.26870727539062
 22
244.70164489746094
 13
0.0
 23
0.0
 14
1.0
 24
1.0
 15
0.0
 25
0.0
 16
0.0
 26
0.0
 36
1.0
 17
0.0
 27
0.0
 37
0.0
 40
427.72140716552735
 41
1.6912879999999999
 42
50.0
 43
0.0
 44
0.0
 50
0.0
 51
0.0
 71
               0
 72
             100
 73
               1
 74
               1
 75
               0
 76
               0
 77
               0
 78
               0
  0
ENDTAB
  0
TABLE
  2
LTYPE
 70
               5
  0
LTYPE
  2
CONTINUOUS
 70
              64
  3
Solid line
 72
              65
 73
               0
 40
0.0
  0
LTYPE
  2
DASHED
 70
              64
  3
DASHED
 72
              65
 73
               2
 40
0.75
 49
0.5
 49
-0.25
  0
LTYPE
  2
HIDDEN
 70
              64
  3
HIDDEN
 72
              65
 73
               2
 40
0.375
 49
0.25
 49
-0.125
  0
LTYPE
  2
CENTER
 70
              64
  3
CENTER
 72
              65
 73
               4
 40
2.0
 49
1.25
 49
-0.25
 49
0.25
 49
-0.25
  0
LTYPE
  2
PHANTOM
 70
              64
  3
PHANTOM
 72
              65
 73
               6
 40
2.5
 49
1.25
 49
-0.25
 49
0.25
 49
-0.25
 49
0.25
 49
-0.25
  0
ENDTAB
  0
TABLE
  2
LAYER
 70
               2
  0
LAYER
  2
0
 70
               0
 62
               7
  6
CONTINUOUS
  0
LAYER
  2
001
 70
               0
 62
               7
  6
CONTINUOUS
  0
ENDTAB
  0
TABLE
  2
STYLE
 70
               2
  0
STYLE
  2
STANDARD
 70
               0
 40
0.0
 41
1.0
 50
0.0
 71
               0
 42
0.2
  3
TXT
  4
BIGFONT
  0
STYLE
  2
TATEGAKI
 70
               4
 40
1.0
 41
1.0
 50
0.0
 71
               0
 42
0.2
  3
TXT
  4
BIGFONT
  0
ENDTAB
  0
TABLE
  2
VIEW
 70
               0
  0
ENDTAB
  0
TABLE
  2
UCS
 70
               0
  0
ENDTAB
  0
TABLE
  2
APPID
 70
               1
  0
APPID
  2
ACAD
 70
               0
  0
ENDTAB
  0
TABLE
  2
DIMSTYLE
 70
               1
  0
DIMSTYLE
  2
STANDARD
 70
               0
  3

  4

  5

  6

  7

 40
1.0
 41
0.18
 42
0.0625
 43
0.38
 44
0.18
 45
0.0
 46
0.0
 47
0.0
 48
0.0
 71
               0
 72
               0
 73
               1
 74
               1
 75
               0
 76
               0
 77
               0
 78
               0
140
0.18
141
0.09
142
0.0
143
25.399999999999999
144
1.0
145
0.0
146
1.0
147
0.09
170
               0
171
               2
172
               0
173
               0
174
               0
175
               0
176
               0
177
               0
178
               0
  0
ENDTAB
  0
ENDSEC
  0
SECTION
  2
BLOCKS
  0
ENDSEC
  0
SECTION
  2
ENTITIES
  0
ARC
  8
001
 62
               3
  5
23
 10
253.10573735394178
 20
215.94217089842664
 30
0.0
 40
3.0
 50
90.0
 51
180.0
  0
LINE
  8
001
 62
               3
  5
24
 10
285.10573735394178
 20
218.94217089842664
 30
0.0
 11
285.10573735394178
 21
219.94217089842664
 31
0.0
  0
LINE
  8
001
 62
               3
  5
25
 10
310.10573735394178
 20
198.94217089842664
 30
0.0
 11
310.10573735394178
 21
218.94217089842664
 31
0.0
  0
LINE
  8
001
 62
               3
  5
26
 10
344.33223466204549
 20
198.94217089842664
 30
0.0
 11
344.33223466204549
 21
218.94217089842664
 31
0.0
  0
LINE
  8
001
 62
               3
  5
27
 10
350.10573735394178
 20
198.94217089842664
 30
0.0
 11
350.10573735394178
 21
218.94217089842664
 31
0.0
  0
LINE
  8
001
 62
               3
  5
28
 10
285.10573735394178
 20
219.94217089842664
 30
0.0
 11
305.10573735394178
 21
219.94217089842664
 31
0.0
  0
LINE
  8
001
 62
               3
  5
29
 10
305.10573735394178
 20
218.94217089842664
 30
0.0
 11
305.10573735394178
 21
219.94217089842664
 31
0.0
  0
LINE
  8
001
 62
               3
  5
2A
 10
285.10573735394178
 20
218.94217089842664
 30
0.0
 11
253.10573735394178
 21
218.94217089842664
 31
0.0
  0
LINE
  8
001
 62
               3
  5
2B
 10
305.10573735394178
 20
218.94217089842664
 30
0.0
 11
355.10573735394178
 21
218.94217089842664
 31
0.0
  0
LINE
  8
001
 62
               3
  5
2C
 10
355.10573735394178
 20
219.94217089842664
 30
0.0
 11
355.10573735394178
 21
218.94217089842664
 31
0.0
  0
ARC
  8
001
 62
               3
  5
2D
 10
300.10573735394178
 20
223.94217089842664
 30
0.0
 40
5.0
 50
180.0
 51
233.13010235415598
  0
LINE
  8
001
 62
               3
  5
2E
 10
355.10573735394178
 20
219.94217089842664
 30
0.0
 11
380.10573735394178
 21
219.94217089842664
 31
0.0
  0
LINE
  8
001
  6
CENTER
  5
2F
 10
365.10573735394178
 20
191.6258094678949
 30
0.0
 11
365.10573735394178
 21
226.38715413822905
 31
0.0
  0
LINE
  8
001
  6
CENTER
  5
30
 10
295.10573735394178
 20
191.6258094678949
 30
0.0
 11
295.10573735394178
 21
226.38715413822905
 31
0.0
  0
LINE
  8
001
 62
               3
  5
31
 10
380.10573735394178
 20
219.94217089842664
 30
0.0
 11
380.10573735394178
 21
198.94217089842664
 31
0.0
  0
LINE
  8
001
 62
               3
  5
32
 10
250.10573735394178
 20
215.94217089842664
 30
0.0
 11
250.10573735394178
 21
198.94217089842664
 31
0.0
  0
LINE
  8
001
 62
               3
  5
33
 10
335.10573735394178
 20
204.94217089842664
 30
0.0
 11
325.10573735394178
 21
204.94217089842664
 31
0.0
  0
LINE
  8
001
 62
               3
  5
34
 10
325.10573735394178
 20
204.94217089842664
 30
0.0
 11
325.10573735394178
 21
198.94217089842664
 31
0.0
  0
LINE
  8
001
 62
               3
  5
35
 10
335.10573735394178
 20
204.94217089842664
 30
0.0
 11
335.10573735394178
 21
198.94217089842664
 31
0.0
  0
LINE
  8
001
 62
               3
  5
36
 10
335.10573735394178
 20
198.94217089842664
 30
0.0
 11
380.10573735394178
 21
198.94217089842664
 31
0.0
  0
LINE
  8
001
 62
               3
  5
37
 10
293.10573735394178
 20
278.94217089842664
 30
0.0
 11
227.10573735394178
 21
278.94217089842664
 31
0.0
  0
LINE
  8
001
 62
               3
  5
38
 10
228.10573735394178
 20
233.94217089842664
 30
0.0
 11
249.10573735394178
 21
233.94217089842664
 31
0.0
  0
LINE
  8
001
 62
               3
  5
39
 10
225.10573735394178
 20
223.94217089842664
 30
0.0
 11
225.10573735394178
 21
198.94217089842664
 31
0.0
  0
LINE
  8
001
 62
               3
  5
3A
 10
252.10573735394178
 20
226.94217089842664
 30
0.0
 11
252.10573735394178
 21
230.94217089842664
 31
0.0
  0
LINE
  8
001
 62
               3
  5
3B
 10
249.10573735394178
 20
223.94217089842664
 30
0.0
 11
225.10573735394178
 21
223.94217089842664
 31
0.0
  0
LINE
  8
001
 62
               3
  5
3C
 10
225.10573735394178
 20
276.94217089842664
 30
0.0
 11
227.10573735394178
 21
278.94217089842664
 31
0.0
  0
LINE
  8
001
 62
               3
  5
3D
 10
293.10573735394178
 20
278.94217089842664
 30
0.0
 11
295.10573735394178
 21
276.94217089842664
 31
0.0
  0
LINE
  8
001
  6
CENTER
  5
3E
 10
260.10573735394178
 20
191.6258094678949
 30
0.0
 11
260.10573735394178
 21
285.99630331382548
 31
0.0
  0
ARC
  8
001
 62
               3
  5
3F
 10
249.10573735394178
 20
230.94217089842664
 30
0.0
 40
3.0
 50
0.0
 51
90.0
  0
ARC
  8
001
 62
               3
  5
40
 10
249.10573735394178
 20
226.94217089842664
 30
0.0
 40
3.0
 50
270.0
 51
0.0
  0
CIRCLE
  8
001
 62
               3
  5
41
 10
228.10573735394178
 20
256.94217089842664
 30
0.0
 40
7.0
  0
LINE
  8
001
 62
               3
  5
42
 10
295.10573735394178
 20
223.94217089842664
 30
0.0
 11
295.10573735394178
 21
276.94217089842664
 31
0.0
  0
LINE
  8
001
 62
               3
  5
43
 10
233.72392543739596
 20
267.94217089842664
 30
0.0
 11
233.72392543739596
 21
261.1178100900874
 31
0.0
  0
LINE
  8
001
 62
               3
  5
44
 10
220.10573735394178
 20
249.39233646315597
 30
0.0
 11
220.10573735394178
 21
241.9421708984267
 31
0.0
  0
ARC
  8
001
 62
               3
  5
45
 10
228.10573735394178
 20
241.94217089842664
 30
0.0
 40
8.0
 50
180.0
 51
270.0
  0
ARC
  8
001
 62
               3
  5
46
 10
228.10573735394178
 20
256.94217089842664
 30
0.0
 40
11.0
 50
90.0
 51
223.3417582272223
  0
LINE
  8
001
 62
               3
  5
47
 10
225.10573735394178
 20
269.59128153910024
 30
0.0
 11
225.10573735394178
 21
276.9421708984267
 31
0.0
  0
LINE
  8
001
 62
               3
  5
48
 10
228.10573735394178
 20
267.94217089842664
 30
0.0
 11
233.72392543739596
 21
267.94217089842664
 31
0.0
  0
ARC
  8
001
 62
               3
  5
49
 10
222.10573735394178
 20
269.59128153910024
 30
0.0
 40
3.0
 50
295.37693352515225
 51
0.0
  0
ARC
  8
001
 62
               3
  5
4A
 10
231.54002363977037
 20
115.95838175438598
 30
0.0
 40
5.0
 50
270.0
 51
315.57299599919435
  0
ARC
  8
001
 62
               3
  5
4B
 10
227.37960101003466
 20
64.958381754385982
 30
0.0
 40
5.0
 50
35.099632195393532
 51
90.0
  0
LINE
  8
001
 62
               3
  5
4C
 10
315.01321464205353
 20
134.45838175438598
 30
0.0
 11
310.97176275772614
 21
141.45838175438598
 31
0.0
  0
LINE
  8
001
 62
               3
  5
4D
 10
308.37368654637271
 20
142.95838175438598
 30
0.0
 11
255.10573735394155
 21
142.95838175438598
 31
0.0
  0
ARC
  8
001
 62
               3
  5
4E
 10
308.37368654637271
 20
139.95838175438598
 30
0.0
 40
3.0
 50
30.000000000000011
 51
90.0
  0
ARC
  8
001
 62
               3
  5
4F
 10
317.61129085340713
 20
135.95838175438598
 30
0.0
 40
3.0
 50
210.0
 51
270.0
  0
LINE
  8
001
 62
               3
  5
50
 10
315.01321464205353
 20
41.458381754385982
 30
0.0
 11
310.97176275772614
 21
34.458381754385982
 31
0.0
  0
LINE
  8
001
 62
               3
  5
51
 10
308.37368654637271
 20
32.958381754385982
 30
0.0
 11
255.10573735394155
 21
32.958381754385982
 31
0.0
  0
ARC
  8
001
 62
               3
  5
52
 10
308.37368654637271
 20
35.958381754385982
 30
0.0
 40
3.0
 50
270.0
 51
330.0
  0
ARC
  8
001
 62
               3
  5
53
 10
317.61129085340713
 20
39.958381754385982
 30
0.0
 40
3.0
 50
90.000000000000028
 51
150.00000000000003
  0
LINE
  8
001
 62
               3
  5
54
 10
349.23971195015724
 20
141.45838175438598
 30
0.0
 11
345.19826006582986
 21
134.45838175438598
 31
0.0
  0
LINE
  8
001
 62
               3
  5
55
 10
351.83778816151084
 20
142.95838175438598
 30
0.0
 11
375.105737353942
 21
142.95838175438598
 31
0.0
  0
ARC
  8
001
 62
               3
  5
56
 10
342.60018385447688
 20
135.95838175438598
 30
0.0
 40
3.0
 50
270.0
 51
330.0
  0
ARC
  8
001
 62
               3
  5
57
 10
351.83778816151084
 20
139.95838175438598
 30
0.0
 40
3.0
 50
90.0
 51
150.0
  0
LINE
  8
001
 62
               3
  5
58
 10
349.23971195015724
 20
34.458381754385982
 30
0.0
 11
345.19826006582986
 21
41.458381754385982
 31
0.0
  0
LINE
  8
001
 62
               3
  5
59
 10
351.83778816151084
 20
32.958381754385982
 30
0.0
 11
375.105737353942
 21
32.958381754385982
 31
0.0
  0
ARC
  8
001
 62
               3
  5
5A
 10
342.60018385447688
 20
39.958381754385982
 30
0.0
 40
3.0
 50
30.000000000000028
 51
90.000000000000014
  0
ARC
  8
001
 62
               3
  5
5B
 10
351.83778816151084
 20
35.958381754385982
 30
0.0
 40
3.0
 50
210.0
 51
270.0
  0
LINE
  8
001
 62
               3
  5
5C
 10
342.60018385447688
 20
132.95838175438598
 30
0.0
 11
317.61129085340713
 21
132.95838175438598
 31
0.0
  0
LINE
  8
001
 62
               3
  5
5D
 10
342.60018385447688
 20
42.958381754385982
 30
0.0
 11
317.61129085340713
 21
42.958381754385982
 31
0.0
  0
CIRCLE
  8
001
 62
               3
  5
5E
 10
260.10573735394178
 20
87.958381754385982
 30
0.0
 40
26.0
  0
LINE
  8
001
 62
               3
  5
5F
 10
380.10573735394178
 20
137.95838175438598
 30
0.0
 11
380.10573735394178
 21
37.958381754385982
 31
0.0
  0
CIRCLE
  8
001
 62
               3
  5
60
 10
365.10573735394178
 20
42.958381754385982
 30
0.0
 40
5.5
  0
CIRCLE
  8
001
 62
               3
  5
61
 10
295.10573735394178
 20
42.958381754385982
 30
0.0
 40
5.5
  0
CIRCLE
  8
001
 62
               3
  5
62
 10
295.10573735394178
 20
132.95838175438598
 30
0.0
 40
5.5
  0
CIRCLE
  8
001
 62
               3
  5
63
 10
365.10573735394178
 20
132.95838175438598
 30
0.0
 40
5.5
  0
LINE
  8
001
 62
               3
  5
64
 10
250.10573735394178
 20
50.877389318907717
 30
0.0
 11
250.10573735394178
 21
37.958381754386039
 31
0.0
  0
LINE
  8
001
 62
               3
  5
65
 10
250.10573735394178
 20
125.03937418986447
 30
0.0
 11
250.10573735394178
 21
137.95838175438615
 31
0.0
  0
LINE
  8
001
 62
               3
  5
66
 10
227.37960101003466
 20
69.958381754385982
 30
0.0
 11
220.10573735394189
 21
69.958381754385982
 31
0.0
  0
LINE
  8
001
 62
               3
  5
67
 10
231.54002363977037
 20
110.95838175438598
 30
0.0
 11
220.10573735394189
 21
110.95838175438598
 31
0.0
  0
ARC
  8
001
 62
               3
  5
68
 10
255.10573735394178
 20
37.958381754385982
 30
0.0
 40
5.0
 50
180.0
 51
270.0
  0
ARC
  8
001
 62
               3
  5
69
 10
375.10573735394178
 20
37.958381754385982
 30
0.0
 40
5.0
 50
270.0
 51
0.0
  0
ARC
  8
001
 62
               3
  5
6A
 10
375.10573735394178
 20
137.95838175438598
 30
0.0
 40
5.0
 50
0.0000000000000127
 51
90.000000000000014
  0
ARC
  8
001
 62
               3
  5
6B
 10
255.10573735394178
 20
137.95838175438598
 30
0.0
 40
5.0
 50
90.0
 51
180.0
  0
ARC
  8
001
 62
               3
  5
6C
 10
245.10573735394178
 20
50.877389318907717
 30
0.0
 40
5.0
 50
0.0000000000000127
 51
67.975687162957854
  0
ARC
  8
001
 62
               3
  5
6D
 10
245.10573735394178
 20
125.03937418986447
 30
0.0
 40
5.0
 50
292.02431283704215
 51
0.0
  0
ARC
  8
001
 62
               3
  5
6E
 10
220.10573735394178
 20
72.958381754385982
 30
0.0
 40
3.0
 50
180.0
 51
270.0
  0
ARC
  8
001
 62
               3
  5
6F
 10
220.10573735394178
 20
107.95838175438598
 30
0.0
 40
3.0
 50
90.0
 51
180.0
  0
LINE
  8
001
 62
               3
  5
70
 10
217.10573735394178
 20
107.95838175438598
 30
0.0
 11
217.10573735394178
 21
89.958381754385982
 31
0.0
  0
LINE
  8
001
 62
               3
  5
71
 10
217.10573735394178
 20
72.958381754385982
 30
0.0
 11
217.10573735394178
 21
85.958381754385982
 31
0.0
  0
ARC
  8
001
 62
               3
  5
72
 10
260.10573735394178
 20
87.958381754385982
 30
0.0
 40
35.0
 50
112.0243128370421
 51
247.9756871629578
  0
LINE
  8
001
 62
               3
  5
73
 10
285.62043899828791
 20
92.958381754385982
 30
0.0
 11
325.10573735394178
 21
92.958381754385982
 31
0.0
  0
LINE
  8
001
 62
               3
  5
74
 10
335.10573735394178
 20
92.958381754385982
 30
0.0
 11
380.10573735394178
 21
92.958381754385982
 31
0.0
  0
LINE
  8
001
 62
               3
  5
75
 10
285.62043899828791
 20
82.958381754385982
 30
0.0
 11
325.10573735394178
 21
82.958381754385982
 31
0.0
  0
LINE
  8
001
 62
               3
  5
76
 10
335.10573735394178
 20
82.958381754385982
 30
0.0
 11
380.10573735394178
 21
82.958381754385982
 31
0.0
  0
LINE
  8
001
 62
               3
  5
77
 10
335.10573735394178
 20
132.95838175438598
 30
0.0
 11
335.10573735394178
 21
92.958381754385982
 31
0.0
  0
LINE
  8
001
 62
               3
  5
78
 10
325.10573735394178
 20
132.95838175438598
 30
0.0
 11
325.10573735394178
 21
92.958381754385982
 31
0.0
  0
LINE
  8
001
 62
               3
  5
79
 10
225.1629269346297
 20
89.958381754385982
 30
0.0
 11
217.105737353942
 21
89.958381754385982
 31
0.0
  0
LINE
  8
001
 62
               3
  5
7A
 10
225.1629269346297
 20
85.958381754385982
 30
0.0
 11
217.105737353942
 21
85.958381754385982
 31
0.0
  0
LINE
  8
001
 62
               3
  5
7B
 10
335.10573735394178
 20
82.958381754385982
 30
0.0
 11
335.10573735394178
 21
42.958381754385982
 31
0.0
  0
LINE
  8
001
 62
               3
  5
7C
 10
325.10573735394178
 20
82.958381754385982
 30
0.0
 11
325.10573735394178
 21
42.958381754385982
 31
0.0
  0
LINE
  8
001
  6
CENTER
  5
7D
 10
386.5075877203742
 20
87.958381754385982
 30
0.0
 11
210.51123229166967
 21
87.958381754385982
 31
0.0
  0
LINE
  8
001
 62
               3
  5
7E
 10
305.10573735394178
 20
349.9259600424673
 30
0.0
 11
305.10573735394178
 21
339.9259600424673
 31
0.0
  0
LINE
  8
001
 62
               3
  5
7F
 10
285.10573735394178
 20
349.9259600424673
 30
0.0
 11
285.10573735394178
 21
339.9259600424673
 31
0.0
  0
LINE
  8
001
 62
               3
  5
80
 10
355.10573735394178
 20
349.9259600424673
 30
0.0
 11
355.10573735394178
 21
339.9259600424673
 31
0.0
  0
LINE
  8
001
 62
               3
  5
81
 10
365.10573735394178
 20
359.9259600424673
 30
0.0
 11
380.10573735394178
 21
359.9259600424673
 31
0.0
  0
ARC
  8
001
 62
               3
  5
82
 10
295.10573735394178
 20
349.9259600424673
 30
0.0
 40
10.0
 50
0.0
 51
180.0
  0
ARC
  8
001
 62
               3
  5
83
 10
365.10573735394178
 20
349.9259600424673
 30
0.0
 40
10.0
 50
90.0
 51
180.0
  0
LINE
  8
001
 62
               3
  5
84
 10
305.10573735394178
 20
439.9259600424673
 30
0.0
 11
305.10573735394178
 21
449.9259600424673
 31
0.0
  0
LINE
  8
001
 62
               3
  5
85
 10
285.10573735394178
 20
439.9259600424673
 30
0.0
 11
285.10573735394178
 21
449.9259600424673
 31
0.0
  0
LINE
  8
001
 62
               3
  5
86
 10
355.10573735394178
 20
439.9259600424673
 30
0.0
 11
355.10573735394178
 21
449.9259600424673
 31
0.0
  0
LINE
  8
001
 62
               3
  5
87
 10
365.10573735394178
 20
429.9259600424673
 30
0.0
 11
380.10573735394178
 21
429.9259600424673
 31
0.0
  0
ARC
  8
001
 62
               3
  5
88
 10
295.10573735394178
 20
439.9259600424673
 30
0.0
 40
10.0
 50
180.0
 51
0.0
  0
ARC
  8
001
 62
               3
  5
89
 10
365.10573735394178
 20
439.9259600424673
 30
0.0
 40
10.0
 50
180.0
 51
270.0
  0
ARC
  8
001
 62
               3
  5
8A
 10
227.37960101003466
 20
417.9259600424673
 30
0.0
 40
5.0
 50
270.0
 51
324.90036780460645
  0
ARC
  8
001
 62
               3
  5
8B
 10
231.54002363977037
 20
366.9259600424673
 30
0.0
 40
5.0
 50
44.427004000805695
 51
90.0
  0
LINE
  8
001
 62
               3
  5
8C
 10
217.10573735394178
 20
374.9259600424673
 30
0.0
 11
217.10573735394178
 21
392.9259600424673
 31
0.0
  0
LINE
  8
001
 62
               3
  5
8D
 10
317.01321464205353
 20
348.4259600424673
 30
0.0
 11
312.97176275772614
 21
341.4259600424673
 31
0.0
  0
LINE
  8
001
 62
               3
  5
8E
 10
310.37368654637271
 20
339.9259600424673
 30
0.0
 11
255.10573735394155
 21
339.9259600424673
 31
0.0
  0
ARC
  8
001
 62
               3
  5
8F
 10
310.37368654637271
 20
342.9259600424673
 30
0.0
 40
3.0
 50
270.0
 51
330.0
  0
ARC
  8
001
 62
               3
  5
90
 10
319.61129085340713
 20
346.9259600424673
 30
0.0
 40
3.0
 50
90.0
 51
150.00000000000003
  0
LINE
  8
001
 62
               3
  5
91
 10
347.23971195015724
 20
341.4259600424673
 30
0.0
 11
343.19826006582986
 21
348.4259600424673
 31
0.0
  0
LINE
  8
001
 62
               3
  5
92
 10
349.83778816151084
 20
339.9259600424673
 30
0.0
 11
375.105737353942
 21
339.9259600424673
 31
0.0
  0
ARC
  8
001
 62
               3
  5
93
 10
340.60018385447688
 20
346.9259600424673
 30
0.0
 40
3.0
 50
30.000000000000028
 51
90.000000000000014
  0
ARC
  8
001
 62
               3
  5
94
 10
349.83778816151084
 20
342.9259600424673
 30
0.0
 40
3.0
 50
210.0
 51
270.0
  0
LINE
  8
001
 62
               3
  5
95
 10
340.60018385447688
 20
349.9259600424673
 30
0.0
 11
319.61129085340713
 21
349.9259600424673
 31
0.0
  0
LINE
  8
001
 62
               3
  5
96
 10
347.23971195015724
 20
448.4259600424673
 30
0.0
 11
343.19826006582986
 21
441.4259600424673
 31
0.0
  0
LINE
  8
001
 62
               3
  5
97
 10
349.83778816151084
 20
449.9259600424673
 30
0.0
 11
375.105737353942
 21
449.9259600424673
 31
0.0
  0
ARC
  8
001
 62
               3
  5
98
 10
340.60018385447688
 20
442.9259600424673
 30
0.0
 40
3.0
 50
270.0
 51
330.0
  0
ARC
  8
001
 62
               3
  5
99
 10
349.83778816151084
 20
446.9259600424673
 30
0.0
 40
3.0
 50
90.0
 51
150.0
  0
LINE
  8
001
 62
               3
  5
9A
 10
317.01321464205353
 20
441.4259600424673
 30
0.0
 11
312.97176275772614
 21
448.4259600424673
 31
0.0
  0
LINE
  8
001
 62
               3
  5
9B
 10
310.37368654637271
 20
449.9259600424673
 30
0.0
 11
255.10573735394155
 21
449.9259600424673
 31
0.0
  0
ARC
  8
001
 62
               3
  5
9C
 10
310.37368654637271
 20
446.9259600424673
 30
0.0
 40
3.0
 50
30.000000000000011
 51
90.0
  0
ARC
  8
001
 62
               3
  5
9D
 10
319.61129085340713
 20
442.9259600424673
 30
0.0
 40
3.0
 50
210.0
 51
270.0
  0
LINE
  8
001
 62
               3
  5
9E
 10
340.60018385447688
 20
439.9259600424673
 30
0.0
 11
319.61129085340713
 21
439.9259600424673
 31
0.0
  0
CIRCLE
  8
001
 62
               3
  5
9F
 10
260.10573735394178
 20
394.9259600424673
 30
0.0
 40
26.0
  0
LINE
  8
001
 62
               3
  5
A0
 10
380.10573735394178
 20
344.9259600424673
 30
0.0
 11
380.10573735394178
 21
444.9259600424673
 31
0.0
  0
CIRCLE
  8
001
 62
               3
  5
A1
 10
365.10573735394178
 20
439.9259600424673
 30
0.0
 40
5.5
  0
CIRCLE
  8
001
 62
               3
  5
A2
 10
295.10573735394178
 20
439.9259600424673
 30
0.0
 40
5.5
  0
CIRCLE
  8
001
 62
               3
  5
A3
 10
295.10573735394178
 20
349.9259600424673
 30
0.0
 40
5.5
  0
CIRCLE
  8
001
 62
               3
  5
A4
 10
365.10573735394178
 20
349.9259600424673
 30
0.0
 40
5.5
  0
LINE
  8
001
 62
               3
  5
A5
 10
250.10573735394178
 20
432.00695247794556
 30
0.0
 11
250.10573735394178
 21
444.92596004246724
 31
0.0
  0
LINE
  8
001
 62
               3
  5
A6
 10
250.10573735394178
 20
357.84496760698903
 30
0.0
 11
250.10573735394178
 21
344.92596004246735
 31
0.0
  0
LINE
  8
001
 62
               3
  5
A7
 10
355.10573735394178
 20
392.9259600424673
 30
0.0
 11
355.10573735394178
 21
396.9259600424673
 31
0.0
  0
LINE
  8
001
 62
               3
  5
A8
 10
352.10573735394178
 20
399.9259600424673
 30
0.0
 11
298.83557081601595
 21
399.9259600424673
 31
0.0
  0
LINE
  8
001
 62
               3
  5
A9
 10
352.10573735394178
 20
389.9259600424673
 30
0.0
 11
298.83557081601595
 21
389.9259600424673
 31
0.0
  0
LINE
  8
001
 62
               3
  5
AA
 10
227.37960101003466
 20
412.9259600424673
 30
0.0
 11
220.10573735394189
 21
412.9259600424673
 31
0.0
  0
LINE
  8
001
 62
               3
  5
AB
 10
231.54002363977037
 20
371.9259600424673
 30
0.0
 11
220.10573735394189
 21
371.9259600424673
 31
0.0
  0
LINE
  8
001
 62
               3
  5
AC
 10
233.72620876472661
 20
396.9259600424673
 30
0.0
 11
217.10573735394166
 21
396.9259600424673
 31
0.0
  0
LINE
  8
001
 62
               3
  5
AD
 10
233.72620876472661
 20
392.9259600424673
 30
0.0
 11
217.10573735394166
 21
392.9259600424673
 31
0.0
  0
ARC
  8
001
 62
               3
  5
AE
 10
255.10573735394178
 20
444.9259600424673
 30
0.0
 40
5.0
 50
90.0
 51
180.0
  0
ARC
  8
001
 62
               3
  5
AF
 10
375.10573735394178
 20
444.9259600424673
 30
0.0
 40
5.0
 50
0.0
 51
90.0
  0
ARC
  8
001
 62
               3
  5
B0
 10
375.10573735394178
 20
344.9259600424673
 30
0.0
 40
5.0
 50
270.0
 51
0.0
  0
ARC
  8
001
 62
               3
  5
B1
 10
255.10573735394178
 20
344.9259600424673
 30
0.0
 40
5.0
 50
180.0
 51
270.0
  0
ARC
  8
001
 62
               3
  5
B2
 10
245.10573735394178
 20
432.00695247794556
 30
0.0
 40
5.0
 50
292.02431283704215
 51
0.0
  0
ARC
  8
001
 62
               3
  5
B3
 10
245.10573735394178
 20
357.84496760698903
 30
0.0
 40
5.0
 50
0.0
 51
67.97568716295784
  0
ARC
  8
001
 62
               3
  5
B4
 10
220.10573735394178
 20
409.9259600424673
 30
0.0
 40
3.0
 50
90.0
 51
180.0
  0
ARC
  8
001
 62
               3
  5
B5
 10
220.10573735394178
 20
374.9259600424673
 30
0.0
 40
3.0
 50
180.0
 51
270.0
  0
LINE
  8
001
 62
               3
  5
B6
 10
217.10573735394178
 20
409.9259600424673
 30
0.0
 11
217.10573735394178
 21
396.9259600424673
 31
0.0
  0
LINE
  8
001
 62
               3
  5
B7
 10
233.72620876472661
 20
396.9259600424673
 30
0.0
 11
234.22620876472661
 21
397.4259600424673
 31
0.0
  0
LINE
  8
001
 62
               3
  5
B8
 10
234.22620876472661
 20
392.4259600424673
 30
0.0
 11
233.72620876472661
 21
392.9259600424673
 31
0.0
  0
ARC
  8
001
 62
               3
  5
B9
 10
298.83557081601589
 20
404.9259600424673
 30
0.0
 40
5.0
 50
194.4775121859299
 51
270.0
  0
ARC
  8
001
 62
               3
  5
BA
 10
298.83557081601589
 20
384.9259600424673
 30
0.0
 40
5.0
 50
90.0
 51
165.5224878140701
  0
ARC
  8
001
 62
               3
  5
BB
 10
352.10573735394178
 20
396.9259600424673
 30
0.0
 40
3.0
 50
0.0
 51
90.0
  0
ARC
  8
001
 62
               3
  5
BC
 10
352.10573735394178
 20
392.9259600424673
 30
0.0
 40
3.0
 50
270.0
 51
0.0
  0
LINE
  8
001
  6
CENTER
  5
BD
 10
386.5075877203742
 20
394.9259600424673
 30
0.0
 11
210.51123229166973
 21
394.9259600424673
 31
0.0
  0
ARC
  8
001
 62
               3
  5
BE
 10
162.20146282126393
 20
215.94217089842664
 30
0.0
 40
3.0
 50
0.0
 51
90.0
  0
ARC
  8
001
 62
               3
  5
BF
 10
58.201462821263931
 20
215.94217089842664
 30
0.0
 40
3.0
 50
90.0
 51
180.0
  0
LINE
  8
001
 62
               3
  5
C0
 10
165.20146282126393
 20
219.94217089842664
 30
0.0
 11
147.20146282126393
 21
219.94217089842664
 31
0.0
  0
LINE
  8
001
 62
               3
  5
C1
 10
165.20146282126393
 20
198.94217089842664
 30
0.0
 11
165.20146282126393
 21
219.94217089842664
 31
0.0
  0
LINE
  8
001
 62
               3
  5
C2
 10
55.201462821263931
 20
198.94217089842664
 30
0.0
 11
55.201462821263931
 21
219.94217089842664
 31
0.0
  0
LINE
  8
001
 62
               3
  5
C3
 10
73.201462821263931
 20
219.94217089842664
 30
0.0
 11
55.201462821263902
 21
219.94217089842664
 31
0.0
  0
LINE
  8
001
  6
CENTER
  5
C4
 10
155.20146282126393
 20
191.6258094678949
 30
0.0
 11
155.20146282126393
 21
226.38715413822905
 31
0.0
  0
LINE
  8
001
  6
CENTER
  5
C5
 10
65.201462821263931
 20
191.6258094678949
 30
0.0
 11
65.201462821263931
 21
226.38715413822905
 31
0.0
  0
LINE
  8
001
 62
               3
  5
C6
 10
55.201462821263931
 20
198.94217089842664
 30
0.0
 11
165.20146282126393
 21
198.94217089842664
 31
0.0
  0
LINE
  8
001
 62
               3
  5
C7
 10
143.7424824837608
 20
223.94217089842664
 30
0.0
 11
143.7424824837608
 21
198.94217089842664
 31
0.0
  0
LINE
  8
001
 62
               3
  5
C8
 10
70.201462821263931
 20
218.94217089842664
 30
0.0
 11
58.201462821263931
 21
218.94217089842664
 31
0.0
  0
LINE
  8
001
 62
               3
  5
C9
 10
150.20146282126393
 20
218.94217089842664
 30
0.0
 11
162.20146282126393
 21
218.94217089842664
 31
0.0
  0
LINE
  8
001
 62
               3
  5
CA
 10
76.660443158767293
 20
223.94217089842664
 30
0.0
 11
76.660443158767293
 21
198.94217089842664
 31
0.0
  0
ARC
  8
001
 62
               3
  5
CB
 10
150.20146282126393
 20
223.94217089842664
 30
0.0
 40
5.0
 50
180.0
 51
270.0
  0
ARC
  8
001
 62
               3
  5
CC
 10
70.201462821263931
 20
223.94217089842664
 30
0.0
 40
5.0
 50
270.0
 51
0.0
  0
LINE
  8
001
 62
               3
  5
CD
 10
75.201462821263931
 20
276.94217089842664
 30
0.0
 11
77.201462821263931
 21
278.94217089842664
 31
0.0
  0
LINE
  8
001
  6
CENTER
  5
CE
 10
110.20146282126393
 20
191.6258094678949
 30
0.0
 11
110.20146282126393
 21
285.99630331382548
 31
0.0
  0
LINE
  8
001
 62
               3
  5
CF
 10
112.20146282126393
 20
278.94217089842664
 30
0.0
 11
112.20146282126393
 21
233.94217089842664
 31
0.0
  0
LINE
  8
001
 62
               3
  5
D0
 10
108.20146282126393
 20
278.94217089842664
 30
0.0
 11
108.20146282126393
 21
233.94217089842664
 31
0.0
  0
LINE
  8
001
 62
               3
  5
D1
 10
134.94009657496986
 20
226.94215359883856
 30
0.0
 11
134.94009657496986
 21
230.94217089842516
 31
0.0
  0
LINE
  8
001
 62
               3
  5
D2
 10
144.27491289606564
 20
226.94217089842027
 30
0.0
 11
144.27491289606564
 21
230.94217089841302
 31
0.0
  0
LINE
  8
001
 62
               3
  5
D3
 10
143.42796439116478
 20
223.94217089842664
 30
0.0
 11
76.97496736959188
 21
223.94217089842664
 31
0.0
  0
LINE
  8
001
 62
               3
  5
D4
 10
85.462829067558005
 20
230.94217653882743
 30
0.0
 11
85.462829067558005
 21
226.942170898428
 31
0.0
  0
LINE
  8
001
 62
               3
  5
D5
 10
76.128012746462218
 20
226.94217089844074
 30
0.0
 11
76.128012746462218
 21
230.9421708984313
 31
0.0
  0
LINE
  8
001
 62
               3
  5
D6
 10
76.974967369588967
 20
233.94217089842664
 30
0.0
 11
108.20146282126407
 21
233.94217089842664
 31
0.0
  0
LINE
  8
001
 62
               3
  5
D7
 10
143.42795827293617
 20
233.94217089842664
 30
0.0
 11
112.20146282126397
 21
233.94217089842664
 31
0.0
  0
POLYLINE
  8
001
 62
               3
  5
D8
 66
               1
 10
0.0
 20
0.0
 30
0.0
  0
VERTEX
  8
001
 62
               3
  5
D9
 10
76.974967369591468
 20
233.94217089842664
 30
0.0
  0
VERTEX
  8
001
 62
               3
  5
DA
 10
76.889390391005676
 20
233.92532193489185
 30
0.0
  0
VERTEX
  8
001
 62
               3
  5
DB
 10
76.808979559071304
 20
233.89736205913172
 30
0.0
  0
VERTEX
  8
001
 62
               3
  5
DC
 10
76.725797342721094
 20
233.83988779862216
 30
0.0
  0
VERTEX
  8
001
 62
               3
  5
DD
 10
76.655091651979546
 20
233.76418135907548
 30
0.0
  0
VERTEX
  8
001
 62
               3
  5
DE
 10
76.57947351644782
 20
233.6568628107504
 30
0.0
  0
VERTEX
  8
001
 62
               3
  5
DF
 10
76.516892340239565
 20
233.54276386915106
 30
0.0
  0
VERTEX
  8
001
 62
               3
  5
E0
 10
76.451509026834003
 20
233.39340545392005
 30
0.0
  0
VERTEX
  8
001
 62
               3
  5
E1
 10
76.397188768647993
 20
233.23921459506067
 30
0.0
  0
VERTEX
  8
001
 62
               3
  5
E2
 10
76.344815891482696
 20
233.05757081656978
 30
0.0
  0
VERTEX
  8
001
 62
               3
  5
E3
 10
76.301292297852797
 20
232.87375077536231
 30
0.0
  0
VERTEX
  8
001
 62
               3
  5
E4
 10
76.259831862159373
 20
232.66183900051831
 30
0.0
  0
VERTEX
  8
001
 62
               3
  5
E5
 10
76.225803800382778
 20
232.44856979523539
 30
0.0
  0
VERTEX
  8
001
 62
               3
  5
E6
 10
76.196565335321324
 20
232.22113620637515
 30
0.0
  0
VERTEX
  8
001
 62
               3
  5
E7
 10
76.173266685050066
 20
231.99301412638337
 30
0.0
  0
VERTEX
  8
001
 62
               3
  5
E8
 10
76.154018494999832
 20
231.74990018181578
 30
0.0
  0
VERTEX
  8
001
 62
               3
  5
E9
 10
76.140627891045369
 20
231.50642244413646
 30
0.0
  0
VERTEX
  8
001
 62
               3
  5
EA
 10
76.132209855399893
 20
231.2243703917386
 30
0.0
  0
VERTEX
  8
001
 62
               3
  5
EB
 10
76.128012746462218
 20
230.94217089842661
 30
0.0
  0
SEQEND
  8
001
  5
EC
  0
POLYLINE
  8
001
 62
               3
  5
ED
 66
               1
 10
0.0
 20
0.0
 30
0.0
  0
VERTEX
  8
001
 62
               3
  5
EE
 10
76.128012746462446
 20
226.94217089842664
 30
0.0
  0
VERTEX
  8
001
 62
               3
  5
EF
 10
76.131287071815166
 20
226.69580725132786
 30
0.0
  0
VERTEX
  8
001
 62
               3
  5
F0
 10
76.137650298696485
 20
226.44953348023091
 30
0.0
  0
VERTEX
  8
001
 62
               3
  5
F1
 10
76.149224801552108
 20
226.21004104062015
 30
0.0
  0
VERTEX
  8
001
 62
               3
  5
F2
 10
76.166356993565159
 20
225.970864758875
 30
0.0
  0
VERTEX
  8
001
 62
               3
  5
F3
 10
76.187561412054194
 20
225.74524381670992
 30
0.0
  0
VERTEX
  8
001
 62
               3
  5
F4
 10
76.214233560778325
 20
225.52019166583588
 30
0.0
  0
VERTEX
  8
001
 62
               3
  5
F5
 10
76.24431439591423
 20
225.31412924805764
 30
0.0
  0
VERTEX
  8
001
 62
               3
  5
F6
 10
76.280854823518439
 20
225.10918131015487
 30
0.0
  0
VERTEX
  8
001
 62
               3
  5
F7
 10
76.320091409277083
 20
224.92708579812364
 30
0.0
  0
VERTEX
  8
001
 62
               3
  5
F8
 10
76.366758520890698
 20
224.74654731216503
 30
0.0
  0
VERTEX
  8
001
 62
               3
  5
F9
 10
76.413994094461799
 20
224.59351706275621
 30
0.0
  0
VERTEX
  8
001
 62
               3
  5
FA
 10
76.470328264260957
 20
224.44418215028779
 30
0.0
  0
VERTEX
  8
001
 62
               3
  5
FB
 10
76.526854355865936
 20
224.32267084468626
 30
0.0
  0
VERTEX
  8
001
 62
               3
  5
FC
 10
76.593626820962754
 20
224.20487879044745
 30
0.0
  0
VERTEX
  8
001
 62
               3
  5
FD
 10
76.656196346723775
 20
224.115465754399
 30
0.0
  0
VERTEX
  8
001
 62
               3
  5
FE
 10
76.731952982407961
 20
224.04087573926313
 30
0.0
  0
VERTEX
  8
001
 62
               3
  5
FF
 10
76.846485869968859
 20
223.98119226063852
 30
0.0
  0
VERTEX
  8
001
 62
               3
  5
100
 10
76.974967369591695
 20
223.94217089842664
 30
0.0
  0
SEQEND
  8
001
  5
101
  0
POLYLINE
  8
001
 62
               3
  5
102
 66
               1
 10
0.0
 20
0.0
 30
0.0
  0
VERTEX
  8
001
 62
               3
  5
103
 10
86.643024842484465
 20
223.94217089842664
 30
0.0
  0
VERTEX
  8
001
 62
               3
  5
104
 10
86.521575750539625
 20
223.95866529792576
 30
0.0
  0
VERTEX
  8
001
 62
               3
  5
105
 10
86.404656166849122
 20
223.98891012168482
 30
0.0
  0
VERTEX
  8
001
 62
               3
  5
106
 10
86.288293032486138
 20
224.04809207288383
 30
0.0
  0
VERTEX
  8
001
 62
               3
  5
107
 10
86.183815594670705
 20
224.1291157760491
 30
0.0
  0
VERTEX
  8
001
 62
               3
  5
108
 10
86.076951094974874
 20
224.2410196877768
 30
0.0
  0
VERTEX
  8
001
 62
               3
  5
109
 10
85.985527932035666
 20
224.36515889554045
 30
0.0
  0
VERTEX
  8
001
 62
               3
  5
10A
 10
85.892671865779235
 20
224.52448307916356
 30
0.0
  0
VERTEX
  8
001
 62
               3
  5
10B
 10
85.814757223791162
 20
224.69187813528433
 30
0.0
  0
VERTEX
  8
001
 62
               3
  5
10C
 10
85.743419990026524
 20
224.88062848905059
 30
0.0
  0
VERTEX
  8
001
 62
               3
  5
10D
 10
85.683868378870898
 20
225.07335970740618
 30
0.0
  0
VERTEX
  8
001
 62
               3
  5
10E
 10
85.627864330580479
 20
225.29416873956706
 30
0.0
  0
VERTEX
  8
001
 62
               3
  5
10F
 10
85.582137352592099
 20
225.51733700690178
 30
0.0
  0
VERTEX
  8
001
 62
               3
  5
110
 10
85.54467119251818
 20
225.74661516208246
 30
0.0
  0
VERTEX
  8
001
 62
               3
  5
111
 10
85.515069051856926
 20
225.97706276833807
 30
0.0
  0
VERTEX
  8
001
 62
               3
  5
112
 10
85.491168460552672
 20
226.22140065269289
 30
0.0
  0
VERTEX
  8
001
 62
               3
  5
113
 10
85.475142683940589
 20
226.46632800479614
 30
0.0
  0
VERTEX
  8
001
 62
               3
  5
114
 10
85.466979242375118
 20
226.70416834194288
 30
0.0
  0
VERTEX
  8
001
 62
               3
  5
115
 10
85.462829067558005
 20
226.94217089842664
 30
0.0
  0
SEQEND
  8
001
  5
116
  0
POLYLINE
  8
001
 62
               3
  5
117
 66
               1
 10
0.0
 20
0.0
 30
0.0
  0
VERTEX
  8
001
 62
               3
  5
118
 10
85.462829067558005
 20
230.94217089842664
 30
0.0
  0
VERTEX
  8
001
 62
               3
  5
119
 10
85.467179197110539
 20
231.1840276006744
 30
0.0
  0
VERTEX
  8
001
 62
               3
  5
11A
 10
85.475619266144463
 20
231.42571930737319
 30
0.0
  0
VERTEX
  8
001
 62
               3
  5
11B
 10
85.490973129169859
 20
231.66087586309797
 30
0.0
  0
VERTEX
  8
001
 62
               3
  5
11C
 10
85.5136545970621
 20
231.895481188616
 30
0.0
  0
VERTEX
  8
001
 62
               3
  5
11D
 10
85.541728849075184
 20
232.11704082862099
 30
0.0
  0
VERTEX
  8
001
 62
               3
  5
11E
 10
85.576921550184238
 20
232.3375654212573
 30
0.0
  0
VERTEX
  8
001
 62
               3
  5
11F
 10
85.616695459166834
 20
232.54018666361083
 30
0.0
  0
VERTEX
  8
001
 62
               3
  5
120
 10
85.664658912761297
 20
232.74102716967778
 30
0.0
  0
VERTEX
  8
001
 62
               3
  5
121
 10
85.716720761341563
 20
232.92202168920045
 30
0.0
  0
VERTEX
  8
001
 62
               3
  5
122
 10
85.778129773740602
 20
233.10005117130268
 30
0.0
  0
VERTEX
  8
001
 62
               3
  5
123
 10
85.841066138489126
 20
233.25290850529245
 30
0.0
  0
VERTEX
  8
001
 62
               3
  5
124
 10
85.91448284053115
 20
233.40104949697067
 30
0.0
  0
VERTEX
  8
001
 62
               3
  5
125
 10
85.990979500965253
 20
233.52801863814813
 30
0.0
  0
VERTEX
  8
001
 62
               3
  5
126
 10
86.079595849720477
 20
233.64667080628789
 30
0.0
  0
VERTEX
  8
001
 62
               3
  5
127
 10
86.166459329391344
 20
233.73891276870279
 30
0.0
  0
VERTEX
  8
001
 62
               3
  5
128
 10
86.264672437332365
 20
233.8193454612674
 30
0.0
  0
VERTEX
  8
001
 62
               3
  5
129
 10
86.353171523471389
 20
233.87306477372573
 30
0.0
  0
VERTEX
  8
001
 62
               3
  5
12A
 10
86.448413080179876
 20
233.91152250915019
 30
0.0
  0
VERTEX
  8
001
 62
               3
  5
12B
 10
86.544498833722642
 20
233.9315524007157
 30
0.0
  0
VERTEX
  8
001
 62
               3
  5
12C
 10
86.643024842484465
 20
233.94217089842664
 30
0.0
  0
SEQEND
  8
001
  5
12D
  0
POLYLINE
  8
001
 62
               3
  5
12E
 66
               1
 10
0.0
 20
0.0
 30
0.0
  0
VERTEX
  8
001
 62
               3
  5
12F
 10
133.7599008000434
 20
233.94217089842664
 30
0.0
  0
VERTEX
  8
001
 62
               3
  5
130
 10
133.88134989198824
 20
233.92567649892752
 30
0.0
  0
VERTEX
  8
001
 62
               3
  5
131
 10
133.99826947567874
 20
233.89543167516845
 30
0.0
  0
VERTEX
  8
001
 62
               3
  5
132
 10
134.11463261004172
 20
233.83624972396944
 30
0.0
  0
VERTEX
  8
001
 62
               3
  5
133
 10
134.21911004785716
 20
233.75522602080417
 30
0.0
  0
VERTEX
  8
001
 62
               3
  5
134
 10
134.32597454755299
 20
233.64332210907651
 30
0.0
  0
VERTEX
  8
001
 62
               3
  5
135
 10
134.4173977104922
 20
233.51918290131286
 30
0.0
  0
VERTEX
  8
001
 62
               3
  5
136
 10
134.51025377674861
 20
233.35985871768972
 30
0.0
  0
VERTEX
  8
001
 62
               3
  5
137
 10
134.5881684187367
 20
233.19246366156895
 30
0.0
  0
VERTEX
  8
001
 62
               3
  5
138
 10
134.65950565250134
 20
233.00371330780268
 30
0.0
  0
VERTEX
  8
001
 62
               3
  5
139
 10
134.71905726365696
 20
232.81098208944709
 30
0.0
  0
VERTEX
  8
001
 62
               3
  5
13A
 10
134.77506131194738
 20
232.59017305728622
 30
0.0
  0
VERTEX
  8
001
 62
               3
  5
13B
 10
134.82078828993576
 20
232.36700478995149
 30
0.0
  0
VERTEX
  8
001
 62
               3
  5
13C
 10
134.8582544500097
 20
232.13772663477081
 30
0.0
  0
VERTEX
  8
001
 62
               3
  5
13D
 10
134.88785659067094
 20
231.90727902851521
 30
0.0
  0
VERTEX
  8
001
 62
               3
  5
13E
 10
134.91175718197519
 20
231.66294114416038
 30
0.0
  0
VERTEX
  8
001
 62
               3
  5
13F
 10
134.92778295858727
 20
231.41801379205714
 30
0.0
  0
VERTEX
  8
001
 62
               3
  5
140
 10
134.93594640015274
 20
231.18017345491043
 30
0.0
  0
VERTEX
  8
001
 62
               3
  5
141
 10
134.94009657496986
 20
230.94217089842664
 30
0.0
  0
SEQEND
  8
001
  5
142
  0
POLYLINE
  8
001
 62
               3
  5
143
 66
               1
 10
0.0
 20
0.0
 30
0.0
  0
VERTEX
  8
001
 62
               3
  5
144
 10
134.94009626538377
 20
226.94215048556657
 30
0.0
  0
VERTEX
  8
001
 62
               3
  5
145
 10
134.93574620433216
 20
226.70030399323002
 30
0.0
  0
VERTEX
  8
001
 62
               3
  5
146
 10
134.92730637638357
 20
226.45862248948012
 30
0.0
  0
VERTEX
  8
001
 62
               3
  5
147
 10
134.91195251335816
 20
226.22346593375534
 30
0.0
  0
VERTEX
  8
001
 62
               3
  5
148
 10
134.88927104546593
 20
225.9888606082373
 30
0.0
  0
VERTEX
  8
001
 62
               3
  5
149
 10
134.86119679345285
 20
225.76730096823232
 30
0.0
  0
VERTEX
  8
001
 62
               3
  5
14A
 10
134.82600409234379
 20
225.54677637559604
 30
0.0
  0
VERTEX
  8
001
 62
               3
  5
14B
 10
134.7862301833612
 20
225.34415513324248
 30
0.0
  0
VERTEX
  8
001
 62
               3
  5
14C
 10
134.73826672976674
 20
225.14331462717553
 30
0.0
  0
VERTEX
  8
001
 62
               3
  5
14D
 10
134.68620488118646
 20
224.96232010765286
 30
0.0
  0
VERTEX
  8
001
 62
               3
  5
14E
 10
134.62479586878743
 20
224.7842906255506
 30
0.0
  0
VERTEX
  8
001
 62
               3
  5
14F
 10
134.56185950403892
 20
224.63143329156085
 30
0.0
  0
VERTEX
  8
001
 62
               3
  5
150
 10
134.48844280199688
 20
224.48329229988263
 30
0.0
  0
VERTEX
  8
001
 62
               3
  5
151
 10
134.41194614156277
 20
224.35632315870518
 30
0.0
  0
VERTEX
  8
001
 62
               3
  5
152
 10
134.32332979280756
 20
224.23767099056545
 30
0.0
  0
VERTEX
  8
001
 62
               3
  5
153
 10
134.2364663131367
 20
224.14542902815055
 30
0.0
  0
VERTEX
  8
001
 62
               3
  5
154
 10
134.13825320519567
 20
224.06499633558593
 30
0.0
  0
VERTEX
  8
001
 62
               3
  5
155
 10
134.04975411905664
 20
224.01127702312758
 30
0.0
  0
VERTEX
  8
001
 62
               3
  5
156
 10
133.95451256234816
 20
223.97281928770312
 30
0.0
  0
VERTEX
  8
001
 62
               3
  5
157
 10
133.8584268088054
 20
223.95278939613758
 30
0.0
  0
VERTEX
  8
001
 62
               3
  5
158
 10
133.75990080004357
 20
223.94217089842667
 30
0.0
  0
SEQEND
  8
001
  5
159
  0
POLYLINE
  8
001
 62
               3
  5
15A
 66
               1
 10
0.0
 20
0.0
 30
0.0
  0
VERTEX
  8
001
 62
               3
  5
15B
 10
144.27491289606542
 20
230.94217089842664
 30
0.0
  0
VERTEX
  8
001
 62
               3
  5
15C
 10
144.2716385707127
 20
231.18853454552541
 30
0.0
  0
VERTEX
  8
001
 62
               3
  5
15D
 10
144.26527534383138
 20
231.43480831662237
 30
0.0
  0
VERTEX
  8
001
 62
               3
  5
15E
 10
144.25370084097574
 20
231.67430075623312
 30
0.0
  0
VERTEX
  8
001
 62
               3
  5
15F
 10
144.2365686489627
 20
231.91347703797828
 30
0.0
  0
VERTEX
  8
001
 62
               3
  5
160
 10
144.21536423047365
 20
232.13909798014333
 30
0.0
  0
VERTEX
  8
001
 62
               3
  5
161
 10
144.18869208174954
 20
232.3641501310174
 30
0.0
  0
VERTEX
  8
001
 62
               3
  5
162
 10
144.15861124661362
 20
232.57021254879564
 30
0.0
  0
VERTEX
  8
001
 62
               3
  5
163
 10
144.12207081900942
 20
232.77516048669841
 30
0.0
  0
VERTEX
  8
001
 62
               3
  5
164
 10
144.08283423325076
 20
232.95725599872961
 30
0.0
  0
VERTEX
  8
001
 62
               3
  5
165
 10
144.03616712163716
 20
233.13779448468824
 30
0.0
  0
VERTEX
  8
001
 62
               3
  5
166
 10
143.98893154806606
 20
233.29082473409707
 30
0.0
  0
VERTEX
  8
001
 62
               3
  5
167
 10
143.93259737826691
 20
233.44015964656549
 30
0.0
  0
VERTEX
  8
001
 62
               3
  5
168
 10
143.87607128666193
 20
233.56167095216702
 30
0.0
  0
VERTEX
  8
001
 62
               3
  5
169
 10
143.80929882156511
 20
233.67946300640583
 30
0.0
  0
VERTEX
  8
001
 62
               3
  5
16A
 10
143.74672929580407
 20
233.76887604245428
 30
0.0
  0
VERTEX
  8
001
 62
               3
  5
16B
 10
143.6709726601199
 20
233.84346605759015
 30
0.0
  0
VERTEX
  8
001
 62
               3
  5
16C
 10
143.556439772559
 20
233.90314953621476
 30
0.0
  0
VERTEX
  8
001
 62
               3
  5
16D
 10
143.42795827293617
 20
233.94217089842664
 30
0.0
  0
SEQEND
  8
001
  5
16E
  0
POLYLINE
  8
001
 62
               3
  5
16F
 66
               1
 10
0.0
 20
0.0
 30
0.0
  0
VERTEX
  8
001
 62
               3
  5
170
 10
143.42795827293639
 20
223.94217089842664
 30
0.0
  0
VERTEX
  8
001
 62
               3
  5
171
 10
143.51353525152217
 20
223.95901986196142
 30
0.0
  0
VERTEX
  8
001
 62
               3
  5
172
 10
143.59394608345656
 20
223.98697973772155
 30
0.0
  0
VERTEX
  8
001
 62
               3
  5
173
 10
143.67712829980675
 20
224.04445399823112
 30
0.0
  0
VERTEX
  8
001
 62
               3
  5
174
 10
143.74783399054832
 20
224.12016043777777
 30
0.0
  0
VERTEX
  8
001
 62
               3
  5
175
 10
143.82345212608004
 20
224.22747898610291
 30
0.0
  0
VERTEX
  8
001
 62
               3
  5
176
 10
143.8860333022883
 20
224.34157792770225
 30
0.0
  0
VERTEX
  8
001
 62
               3
  5
177
 10
143.95141661569386
 20
224.4909363429332
 30
0.0
  0
VERTEX
  8
001
 62
               3
  5
178
 10
144.00573687387987
 20
224.64512720179258
 30
0.0
  0
VERTEX
  8
001
 62
               3
  5
179
 10
144.05810975104518
 20
224.82677098028347
 30
0.0
  0
VERTEX
  8
001
 62
               3
  5
17A
 10
144.10163334467507
 20
225.01059102149094
 30
0.0
  0
VERTEX
  8
001
 62
               3
  5
17B
 10
144.1430937803685
 20
225.22250279633494
 30
0.0
  0
VERTEX
  8
001
 62
               3
  5
17C
 10
144.17712184214508
 20
225.43577200161789
 30
0.0
  0
VERTEX
  8
001
 62
               3
  5
17D
 10
144.20636030720655
 20
225.66320559047813
 30
0.0
  0
VERTEX
  8
001
 62
               3
  5
17E
 10
144.2296589574778
 20
225.89132767046991
 30
0.0
  0
VERTEX
  8
001
 62
               3
  5
17F
 10
144.24890714752803
 20
226.1344416150375
 30
0.0
  0
VERTEX
  8
001
 62
               3
  5
180
 10
144.26229775148249
 20
226.37791935271684
 30
0.0
  0
VERTEX
  8
001
 62
               3
  5
181
 10
144.27071578712798
 20
226.65997140511467
 30
0.0
  0
VERTEX
  8
001
 62
               3
  5
182
 10
144.27491289606564
 20
226.94217089842664
 30
0.0
  0
SEQEND
  8
001
  5
183
  0
LINE
  8
001
 62
               3
  5
184
 10
92.201462821263931
 20
264.94217089842664
 30
0.0
 11
92.201462821263931
 21
236.94217089842664
 31
0.0
  0
LINE
  8
001
 62
               3
  5
185
 10
95.201462821263931
 20
267.94217089842664
 30
0.0
 11
108.20146282126393
 21
267.94217089842664
 31
0.0
  0
ARC
  8
001
 62
               3
  5
186
 10
95.201462821263931
 20
264.94217089842664
 30
0.0
 40
3.0
 50
90.0
 51
180.0
  0
ARC
  8
001
 62
               3
  5
187
 10
95.201462821263931
 20
236.94217089842664
 30
0.0
 40
3.0
 50
180.0
 51
270.0
  0
LINE
  8
001
 62
               3
  5
188
 10
133.20146282126393
 20
264.94217089842664
 30
0.0
 11
133.20146282126393
 21
236.94217089842664
 31
0.0
  0
LINE
  8
001
 62
               3
  5
189
 10
130.20146282126393
 20
267.94217089842664
 30
0.0
 11
112.20146282126393
 21
267.94217089842664
 31
0.0
  0
ARC
  8
001
 62
               3
  5
18A
 10
130.20146282126393
 20
264.94217089842664
 30
0.0
 40
3.0
 50
0.0
 51
90.0
  0
ARC
  8
001
 62
               3
  5
18B
 10
130.20146282126393
 20
236.94217089842664
 30
0.0
 40
3.0
 50
270.0
 51
0.0
  0
LINE
  8
001
 62
               3
  5
18C
 10
143.20146282126393
 20
278.94217089842664
 30
0.0
 11
77.201462821263931
 21
278.94217089842664
 31
0.0
  0
LINE
  8
001
 62
               3
  5
18D
 10
143.20146282126393
 20
278.94217089842664
 30
0.0
 11
145.20146282126393
 21
276.94217089842664
 31
0.0
  0
LINE
  8
001
 62
               3
  5
18E
 10
75.201462821263931
 20
223.94217089842664
 30
0.0
 11
75.201462821263931
 21
276.94217089842664
 31
0.0
  0
LINE
  8
001
 62
               3
  5
18F
 10
130.20146282126393
 20
249.39233646315597
 30
0.0
 11
112.20146282126393
 21
249.39233646315597
 31
0.0
  0
LINE
  8
001
 62
               3
  5
190
 10
108.20146282126393
 20
249.39233646315597
 30
0.0
 11
95.201462821263931
 21
249.39233646315597
 31
0.0
  0
POLYLINE
  8
001
 62
               3
  5
191
 66
               1
 10
0.0
 20
0.0
 30
0.0
  0
VERTEX
  8
001
 62
               3
  5
192
 10
90.076462821263931
 20
263.08051434424328
 30
0.0
  0
VERTEX
  8
001
 62
               3
  5
193
 10
90.038047205201551
 20
263.06556972523265
 30
0.0
  0
VERTEX
  8
001
 62
               3
  5
194
 10
89.999665468137437
 20
263.05053340194377
 30
0.0
  0
VERTEX
  8
001
 62
               3
  5
195
 10
89.461283091009705
 20
262.81658046375378
 30
0.0
  0
VERTEX
  8
001
 62
               3
  5
196
 10
88.940992452754699
 20
262.54405223266218
 30
0.0
  0
VERTEX
  8
001
 62
               3
  5
197
 10
88.441547827588806
 20
262.23027261536146
 30
0.0
  0
VERTEX
  8
001
 62
               3
  5
198
 10
87.971062653420859
 20
261.87509378733711
 30
0.0
  0
VERTEX
  8
001
 62
               3
  5
199
 10
87.66724255080014
 20
261.60624372048699
 30
0.0
  0
VERTEX
  8
001
 62
               3
  5
19A
 10
87.38147794370866
 20
261.31829253305693
 30
0.0
  0
VERTEX
  8
001
 62
               3
  5
19B
 10
87.107589609204922
 20
261.00307291145998
 30
0.0
  0
VERTEX
  8
001
 62
               3
  5
19C
 10
86.855612212212918
 20
260.67004505508783
 30
0.0
  0
VERTEX
  8
001
 62
               3
  5
19D
 10
86.620841615935873
 20
260.3105852174204
 30
0.0
  0
VERTEX
  8
001
 62
               3
  5
19E
 10
86.412082057750013
 20
259.9354654590777
 30
0.0
  0
VERTEX
  8
001
 62
               3
  5
19F
 10
86.23227317035186
 20
259.55084939518565
 30
0.0
  0
VERTEX
  8
001
 62
               3
  5
1A0
 10
86.078839857960475
 20
259.15490449577516
 30
0.0
  0
VERTEX
  8
001
 62
               3
  5
1A1
 10
85.947905193501214
 20
258.73685004515329
 30
0.0
  0
VERTEX
  8
001
 62
               3
  5
1A2
 10
85.845261652259069
 20
258.31102161867767
 30
0.0
  0
VERTEX
  8
001
 62
               3
  5
1A3
 10
85.76964021232375
 20
257.86678571286546
 30
0.0
  0
VERTEX
  8
001
 62
               3
  5
1A4
 10
85.723752080201166
 20
257.41841764750512
 30
0.0
  0
VERTEX
  8
001
 62
               3
  5
1A5
 10
85.706921897774095
 20
256.9642602379123
 30
0.0
  0
VERTEX
  8
001
 62
               3
  5
1A6
 10
85.720197195718129
 20
256.51007224088244
 30
0.0
  0
VERTEX
  8
001
 62
               3
  5
1A7
 10
85.75905204746141
 20
256.09762675725733
 30
0.0
  0
VERTEX
  8
001
 62
               3
  5
1A8
 10
85.823069758119345
 20
255.68829734832642
 30
0.0
  0
VERTEX
  8
001
 62
               3
  5
1A9
 10
85.909973106658441
 20
255.29123329934029
 30
0.0
  0
VERTEX
  8
001
 62
               3
  5
1AA
 10
86.021170994017893
 20
254.90031887770812
 30
0.0
  0
VERTEX
  8
001
 62
               3
  5
1AB
 10
86.156437148914748
 20
254.51888396981471
 30
0.0
  0
VERTEX
  8
001
 62
               3
  5
1AC
 10
86.315760611914129
 20
254.14684328157836
 30
0.0
  0
VERTEX
  8
001
 62
               3
  5
1AD
 10
86.492440179171112
 20
253.79708557218837
 30
0.0
  0
VERTEX
  8
001
 62
               3
  5
1AE
 10
86.691056746054755
 20
253.45925150241393
 30
0.0
  0
VERTEX
  8
001
 62
               3
  5
1AF
 10
87.004828350309893
 20
253.00998856088975
 30
0.0
  0
VERTEX
  8
001
 62
               3
  5
1B0
 10
87.35792911237786
 20
252.59085248148767
 30
0.0
  0
VERTEX
  8
001
 62
               3
  5
1B1
 10
87.733735609656847
 20
252.21678915225533
 30
0.0
  0
VERTEX
  8
001
 62
               3
  5
1B2
 10
88.139156284146338
 20
251.87470322548771
 30
0.0
  0
VERTEX
  8
001
 62
               3
  5
1B3
 10
88.591817548742114
 20
251.55151041771913
 30
0.0
  0
VERTEX
  8
001
 62
               3
  5
1B4
 10
89.069707896105456
 20
251.26815203804099
 30
0.0
  0
VERTEX
  8
001
 62
               3
  5
1B5
 10
89.567539616891182
 20
251.02498872857643
 30
0.0
  0
VERTEX
  8
001
 62
               3
  5
1B6
 10
90.076462821263931
 20
250.80382745260999
 30
0.0
  0
SEQEND
  8
001
  5
1B7
  0
POLYLINE
  8
001
 62
               3
  5
1B8
 66
               1
 10
0.0
 20
0.0
 30
0.0
  0
VERTEX
  8
001
 62
               3
  5
1B9
 10
90.076462821263931
 20
263.08051434424328
 30
0.0
  0
VERTEX
  8
001
 62
               3
  5
1BA
 10
90.394763396696504
 20
263.20928682912671
 30
0.0
  0
VERTEX
  8
001
 62
               3
  5
1BB
 10
90.711286648003352
 20
263.34242223047391
 30
0.0
  0
VERTEX
  8
001
 62
               3
  5
1BC
 10
90.989445307320452
 20
263.46631253773711
 30
0.0
  0
VERTEX
  8
001
 62
               3
  5
1BD
 10
91.266417268958548
 20
263.59233640623427
 30
0.0
  0
VERTEX
  8
001
 62
               3
  5
1BE
 10
91.482532601561516
 20
263.6898905373364
 30
0.0
  0
VERTEX
  8
001
 62
               3
  5
1BF
 10
91.698863740271463
 20
263.78850405441699
 30
0.0
  0
VERTEX
  8
001
 62
               3
  5
1C0
 10
91.854788434562479
 20
263.85845816623043
 30
0.0
  0
VERTEX
  8
001
 62
               3
  5
1C1
 10
92.015226488844064
 20
263.91414326450172
 30
0.0
  0
VERTEX
  8
001
 62
               3
  5
1C2
 10
92.081464034083581
 20
263.92937360456267
 30
0.0
  0
VERTEX
  8
001
 62
               3
  5
1C3
 10
92.148415931108502
 20
263.94217089351383
 30
0.0
  0
SEQEND
  8
001
  5
1C4
  0
POLYLINE
  8
001
 62
               3
  5
1C5
 66
               1
 10
0.0
 20
0.0
 30
0.0
  0
VERTEX
  8
001
 62
               3
  5
1C6
 10
92.148439068568905
 20
249.94217089920915
 30
0.0
  0
VERTEX
  8
001
 62
               3
  5
1C7
 10
92.070736136315247
 20
249.95803194807596
 30
0.0
  0
VERTEX
  8
001
 62
               3
  5
1C8
 10
91.994025069982399
 20
249.97717015030244
 30
0.0
  0
VERTEX
  8
001
 62
               3
  5
1C9
 10
91.86657077179764
 20
250.02254051282108
 30
0.0
  0
VERTEX
  8
001
 62
               3
  5
1CA
 10
91.742116054328562
 20
250.07712498192561
 30
0.0
  0
VERTEX
  8
001
 62
               3
  5
1CB
 10
91.572456215054615
 20
250.15321174850811
 30
0.0
  0
VERTEX
  8
001
 62
               3
  5
1CC
 10
91.403170268553822
 20
250.2292619182943
 30
0.0
  0
VERTEX
  8
001
 62
               3
  5
1CD
 10
91.180923515419579
 20
250.33072414879825
 30
0.0
  0
VERTEX
  8
001
 62
               3
  5
1CE
 10
90.958552295642676
 20
250.43227177172531
 30
0.0
  0
VERTEX
  8
001
 62
               3
  5
1CF
 10
90.698910434241157
 20
250.5477561813336
 30
0.0
  0
VERTEX
  8
001
 62
               3
  5
1D0
 10
90.437441412491125
 20
250.65887604427397
 30
0.0
  0
VERTEX
  8
001
 62
               3
  5
1D1
 10
90.257232171690958
 20
250.73202212687372
 30
0.0
  0
VERTEX
  8
001
 62
               3
  5
1D2
 10
90.076462821263931
 20
250.80382745260997
 30
0.0
  0
SEQEND
  8
001
  5
1D3
  0
LINE
  8
001
 62
               3
  5
1D4
 10
296.89179930550904
 20
267.78946484424353
 30
0.0
 11
353.71165047684002
 21
220.11194868283175
 31
0.0
  0
ARC
  8
001
 62
               3
  5
1D5
 10
356.92558852527281
 20
223.94217089842664
 30
0.0
 40
5.0
 50
230.0
 51
248.65577710182816
  0
ARC
  8
001
 62
               3
  5
1D6
 10
300.10573735394178
 20
271.61968705983838
 30
0.0
 40
5.0
 50
180.0
 51
230.0
  0
LINE
  8
001
  6
CENTER
  5
1D7
 10
260.10573735394178
 20
456.44492994796769
 30
0.0
 11
260.10573735394178
 21
331.53113729087602
 31
0.0
  0
LINE
  8
001
 62
               3
  5
1D8
 10
225.10573735394178
 20
198.94217089842664
 30
0.0
 11
325.10573735394178
 21
198.94217089842664
 31
0.0
  0
LINE
  8
001
 62
               3
  5
1D9
 10
315.87924004583806
 20
198.94217089842664
 30
0.0
 11
315.87924004583806
 21
218.94217089842664
 31
0.0
  0
LINE
  8
001
 62
               3
  5
1DA
 10
234.60573735394178
 20
116.75838175438594
 30
0.0
 11
234.60573735394166
 21
123.15838175438586
 31
0.0
  0
LINE
  8
001
 62
               3
  5
1DB
 10
221.60573735394178
 20
116.75838175438594
 30
0.0
 11
221.60573735394189
 21
123.15838175438586
 31
0.0
  0
LINE
  8
001
 62
               3
  5
1DC
 10
222.40573735394173
 20
123.95838175438587
 30
0.0
 11
233.80573735394182
 21
123.95838175438587
 31
0.0
  0
LINE
  8
001
 62
               3
  5
1DD
 10
222.40573735394184
 20
115.95838175438598
 30
0.0
 11
233.80573735394171
 21
115.95838175438598
 31
0.0
  0
ARC
  8
001
 62
               3
  5
1DE
 10
233.80573735394182
 20
123.1583817543858
 30
0.0
 40
0.8
 50
0.0
 51
90.0
  0
ARC
  8
001
 62
               3
  5
1DF
 10
222.40573735394173
 20
123.1583817543858
 30
0.0
 40
0.8
 50
90.0
 51
180.0
  0
ARC
  8
001
 62
               3
  5
1E0
 10
222.40573735394184
 20
116.75838175438594
 30
0.0
 40
0.8
 50
180.0
 51
270.0
  0
ARC
  8
001
 62
               3
  5
1E1
 10
233.80573735394182
 20
116.75838175438594
 30
0.0
 40
0.8
 50
270.0
 51
0.0
  0
LINE
  8
001
 62
               3
  5
1E2
 10
139.00146282126389
 20
235.44217089842664
 30
0.0
 11
145.40146282126381
 21
235.44217089842675
 31
0.0
  0
LINE
  8
001
 62
               3
  5
1E3
 10
139.001462821264
 20
248.44217089842664
 30
0.0
 11
145.40146282126392
 21
248.44217089842653
 31
0.0
  0
LINE
  8
001
 62
               3
  5
1E4
 10
146.20146282126393
 20
247.64217089842668
 30
0.0
 11
146.20146282126393
 21
236.24217089842659
 31
0.0
  0
LINE
  8
001
 62
               3
  5
1E5
 10
138.20146282126393
 20
247.64217089842657
 30
0.0
 11
138.20146282126393
 21
236.24217089842671
 31
0.0
  0
LINE
  8
001
 62
               3
  5
1E6
 10
108.20146282126393
 20
239.19217089842653
 30
0.0
 11
108.20146282126393
 21
244.69217089842675
 31
0.0
  0
LINE
  8
001
 62
               3
  5
1E7
 10
109.45146282126393
 20
245.94217089842664
 30
0.0
 11
108.20146282126393
 21
244.69217089842675
 31
0.0
  0
LINE
  8
001
 62
               3
  5
1E8
 10
108.20146282126393
 20
239.19217089842653
 30
0.0
 11
109.45146282126393
 21
237.94217089842664
 31
0.0
  0
LINE
  8
001
 62
               3
  5
1E9
 10
109.45146282126393
 20
245.94217089842664
 30
0.0
 11
109.45146282126393
 21
237.94217089842664
 31
0.0
  0
ARC
  8
001
 62
               3
  5
1EA
 10
145.40146282126386
 20
236.24217089842659
 30
0.0
 40
0.8
 50
270.0
 51
0.0
  0
ARC
  8
001
 62
               3
  5
1EB
 10
145.40146282126386
 20
247.64217089842668
 30
0.0
 40
0.8
 50
0.0
 51
90.0
  0
ARC
  8
001
 62
               3
  5
1EC
 10
139.001462821264
 20
247.64217089842657
 30
0.0
 40
0.8
 50
90.0
 51
180.0
  0
ARC
  8
001
 62
               3
  5
1ED
 10
139.00146282126389
 20
236.24217089842659
 30
0.0
 40
0.8
 50
180.0
 51
270.0
  0
LINE
  8
001
 62
               3
  5
1EE
 10
133.50146282126389
 20
250.44217089842664
 30
0.0
 11
139.90146282126381
 21
250.44217089842675
 31
0.0
  0
LINE
  8
001
 62
               3
  5
1EF
 10
133.501462821264
 20
263.44217089842664
 30
0.0
 11
139.90146282126392
 21
263.44217089842653
 31
0.0
  0
LINE
  8
001
 62
               3
  5
1F0
 10
140.70146282126393
 20
262.64217089842668
 30
0.0
 11
140.70146282126393
 21
251.24217089842659
 31
0.0
  0
ARC
  8
001
 62
               3
  5
1F1
 10
139.90146282126386
 20
251.24217089842659
 30
0.0
 40
0.8
 50
270.0
 51
0.0
  0
ARC
  8
001
 62
               3
  5
1F2
 10
139.90146282126386
 20
262.64217089842668
 30
0.0
 40
0.8
 50
0.0
 51
90.0
  0
LINE
  8
001
 62
               3
  5
1F3
 10
221.60573735394178
 20
371.62596004246723
 30
0.0
 11
221.60573735394189
 21
365.22596004246731
 31
0.0
  0
LINE
  8
001
 62
               3
  5
1F4
 10
233.80573735394182
 20
364.42596004246741
 30
0.0
 11
222.40573735394173
 21
364.42596004246741
 31
0.0
  0
ARC
  8
001
 62
               3
  5
1F5
 10
222.40573735394173
 20
365.22596004246736
 30
0.0
 40
0.8
 50
180.0
 51
270.0
  0
ARC
  8
001
 62
               3
  5
1F6
 10
233.80573735394182
 20
365.22596004246736
 30
0.0
 40
0.8
 50
270.0
 51
0.0
  0
LINE
  8
001
  6
CENTER
  5
1F7
 10
357.60573735394178
 20
439.9259600424673
 30
0.0
 11
372.60573735394178
 21
439.9259600424673
 31
0.0
  0
LINE
  8
001
  6
CENTER
  5
1F8
 10
365.10573735394178
 20
432.4259600424673
 30
0.0
 11
365.10573735394178
 21
447.4259600424673
 31
0.0
  0
LINE
  8
001
  6
CENTER
  5
1F9
 10
287.60573735394178
 20
439.9259600424673
 30
0.0
 11
302.60573735394178
 21
439.9259600424673
 31
0.0
  0
LINE
  8
001
  6
CENTER
  5
1FA
 10
295.10573735394178
 20
432.4259600424673
 30
0.0
 11
295.10573735394178
 21
447.4259600424673
 31
0.0
  0
LINE
  8
001
  6
CENTER
  5
1FB
 10
287.60573735394178
 20
349.9259600424673
 30
0.0
 11
302.60573735394178
 21
349.9259600424673
 31
0.0
  0
LINE
  8
001
  6
CENTER
  5
1FC
 10
295.10573735394178
 20
342.4259600424673
 30
0.0
 11
295.10573735394178
 21
357.4259600424673
 31
0.0
  0
LINE
  8
001
  6
CENTER
  5
1FD
 10
357.60573735394178
 20
349.9259600424673
 30
0.0
 11
372.60573735394178
 21
349.9259600424673
 31
0.0
  0
LINE
  8
001
  6
CENTER
  5
1FE
 10
365.10573735394178
 20
342.4259600424673
 30
0.0
 11
365.10573735394178
 21
357.4259600424673
 31
0.0
  0
LINE
  8
001
  6
CENTER
  5
1FF
 10
357.60573735394178
 20
132.95838175438598
 30
0.0
 11
372.60573735394178
 21
132.95838175438598
 31
0.0
  0
LINE
  8
001
  6
CENTER
  5
200
 10
365.10573735394178
 20
125.45838175438598
 30
0.0
 11
365.10573735394178
 21
140.45838175438598
 31
0.0
  0
LINE
  8
001
  6
CENTER
  5
201
 10
357.60573735394178
 20
42.958381754385982
 30
0.0
 11
372.60573735394178
 21
42.958381754385982
 31
0.0
  0
LINE
  8
001
  6
CENTER
  5
202
 10
365.10573735394178
 20
35.458381754385982
 30
0.0
 11
365.10573735394178
 21
50.458381754385982
 31
0.0
  0
LINE
  8
001
  6
CENTER
  5
203
 10
287.60573735394178
 20
42.958381754385982
 30
0.0
 11
302.60573735394178
 21
42.958381754385982
 31
0.0
  0
LINE
  8
001
  6
CENTER
  5
204
 10
295.10573735394178
 20
35.458381754385982
 30
0.0
 11
295.10573735394178
 21
50.458381754385982
 31
0.0
  0
LINE
  8
001
  6
CENTER
  5
205
 10
287.60573735394178
 20
132.95838175438598
 30
0.0
 11
302.60573735394178
 21
132.95838175438598
 31
0.0
  0
LINE
  8
001
  6
CENTER
  5
206
 10
295.10573735394178
 20
125.45838175438598
 30
0.0
 11
295.10573735394178
 21
140.45838175438598
 31
0.0
  0
LINE
  8
001
 62
               3
  5
207
 10
225.13527021896113
 20
255.22717089842672
 30
0.0
 11
225.13527021896113
 21
258.65717089842673
 31
0.0
  0
LINE
  8
001
 62
               3
  5
208
 10
231.07620448892243
 20
258.65717089842656
 30
0.0
 11
231.07620448892243
 21
255.22717089842655
 31
0.0
  0
LINE
  8
001
 62
               3
  5
209
 10
231.07620448892243
 20
255.22717089842672
 30
0.0
 11
228.10573735394181
 21
253.51217089842672
 31
0.0
  0
LINE
  8
001
 62
               3
  5
20A
 10
228.10573735394178
 20
260.3721708984267
 30
0.0
 11
225.13527021896115
 21
258.65717089842673
 31
0.0
  0
LINE
  8
001
 62
               3
  5
20B
 10
228.10573735394178
 20
260.3721708984267
 30
0.0
 11
231.0762044889224
 21
258.65717089842673
 31
0.0
  0
LINE
  8
001
 62
               3
  5
20C
 10
228.10573735394178
 20
253.51217089842658
 30
0.0
 11
225.13527021896115
 21
255.22717089842658
 31
0.0
  0
CIRCLE
  8
001
 62
               3
  5
20D
 10
228.10573735394178
 20
256.94217089842664
 30
0.0
 40
6.5
  0
CIRCLE
  8
001
 62
               3
  5
20E
 10
228.10573735394178
 20
256.94217089842664
 30
0.0
 40
3.4299999999999988
  0
LINE
  8
001
 62
               3
  5
20F
 10
225.13527021896113
 20
240.22717089842672
 30
0.0
 11
225.13527021896113
 21
243.65717089842673
 31
0.0
  0
LINE
  8
001
 62
               3
  5
210
 10
231.07620448892243
 20
243.65717089842656
 30
0.0
 11
231.07620448892243
 21
240.22717089842655
 31
0.0
  0
LINE
  8
001
 62
               3
  5
211
 10
231.07620448892243
 20
240.22717089842672
 30
0.0
 11
228.10573735394181
 21
238.51217089842672
 31
0.0
  0
LINE
  8
001
 62
               3
  5
212
 10
228.10573735394178
 20
245.3721708984267
 30
0.0
 11
225.13527021896115
 21
243.6571708984267
 31
0.0
  0
LINE
  8
001
 62
               3
  5
213
 10
228.10573735394178
 20
245.3721708984267
 30
0.0
 11
231.0762044889224
 21
243.6571708984267
 31
0.0
  0
LINE
  8
001
 62
               3
  5
214
 10
228.10573735394178
 20
238.51217089842658
 30
0.0
 11
225.13527021896115
 21
240.22717089842658
 31
0.0
  0
CIRCLE
  8
001
 62
               3
  5
215
 10
228.10573735394178
 20
241.94217089842664
 30
0.0
 40
6.5
  0
CIRCLE
  8
001
 62
               3
  5
216
 10
228.10573735394178
 20
241.94217089842664
 30
0.0
 40
3.4299999999999988
  0
LINE
  8
001
 62
               3
  5
217
 10
233.72392543739596
 20
233.94217089842664
 30
0.0
 11
233.72392543739596
 21
238.6732318260465
 31
0.0
  0
LINE
  8
001
 62
               3
  5
218
 10
233.72392543739596
 20
245.21110997080677
 30
0.0
 11
233.72392543739596
 21
252.76653170676587
 31
0.0
  0
LINE
  8
001
 62
               3
  5
219
 10
108.20146282126393
 20
252.94217089842664
 30
0.0
 11
112.20146282126393
 21
252.94217089842664
 31
0.0
  0
LINE
  8
001
 62
               3
  5
21A
 10
108.20146282126393
 20
253.61867089842667
 30
0.0
 11
112.20146282126393
 21
253.61867089842667
 31
0.0
  0
LINE
  8
001
 62
               3
  5
21B
 10
108.20146282126393
 20
260.94217089842664
 30
0.0
 11
112.20146282126393
 21
260.94217089842664
 31
0.0
  0
LINE
  8
001
 62
               3
  5
21C
 10
108.20146282126393
 20
260.26567089842661
 30
0.0
 11
112.20146282126393
 21
260.26567089842661
 31
0.0
  0
ARC
  8
001
 62
               3
  5
21D
 10
133.501462821264
 20
262.64217089842657
 30
0.0
 40
0.8
 50
90.0
 51
112.02431283704726
  0
ARC
  8
001
 62
               3
  5
21E
 10
133.50146282126389
 20
251.24217089842659
 30
0.0
 40
0.8
 50
247.9756871629603
 51
270.0
  0
LINE
  8
001
 62
               3
  5
21F
 10
108.77496282126395
 20
245.26567089842661
 30
0.0
 11
112.20146282126393
 21
245.26567089842661
 31
0.0
  0
LINE
  8
001
 62
               3
  5
220
 10
109.45146282126393
 20
245.94217089842664
 30
0.0
 11
112.20146282126393
 21
245.94217089842664
 31
0.0
  0
LINE
  8
001
 62
               3
  5
221
 10
133.20146282126393
 20
245.94217089842664
 30
0.0
 11
138.20146282126387
 21
245.94217089842664
 31
0.0
  0
LINE
  8
001
 62
               3
  5
222
 10
108.77496282126395
 20
238.61867089842667
 30
0.0
 11
112.20146282126393
 21
238.61867089842667
 31
0.0
  0
LINE
  8
001
 62
               3
  5
223
 10
109.45146282126393
 20
237.94217089842664
 30
0.0
 11
112.20146282126393
 21
237.94217089842664
 31
0.0
  0
LINE
  8
001
 62
               3
  5
224
 10
133.20146282126393
 20
237.94217089842664
 30
0.0
 11
138.20146282126387
 21
237.94217089842664
 31
0.0
  0
LINE
  8
001
 62
               3
  5
225
 10
145.20146282126393
 20
223.94217089842664
 30
0.0
 11
145.20146282126393
 21
235.44217089842675
 31
0.0
  0
LINE
  8
001
 62
               3
  5
226
 10
145.20146282126393
 20
248.44217089842653
 30
0.0
 11
145.20146282126393
 21
276.94217089842664
 31
0.0
  0
ARC
  8
001
 62
               3
  5
227
 10
260.10573735394178
 20
394.9259600424673
 30
0.0
 40
35.0
 50
183.27582895979839
 51
176.72417104020164
  0
LINE
  8
001
 62
               3
  5
228
 10
231.42923735394174
 20
396.9259600424673
 30
0.0
 11
231.42923735394174
 21
392.9259600424673
 31
0.0
  0
LINE
  8
001
 62
               3
  5
229
 10
232.10573735394178
 20
396.9259600424673
 30
0.0
 11
232.10573735394178
 21
392.9259600424673
 31
0.0
  0
LINE
  8
001
 62
               3
  5
22A
 10
224.78223735394181
 20
396.9259600424673
 30
0.0
 11
224.78223735394181
 21
392.9259600424673
 31
0.0
  0
LINE
  8
001
 62
               3
  5
22B
 10
224.10573735394178
 20
396.9259600424673
 30
0.0
 11
224.10573735394178
 21
392.9259600424673
 31
0.0
  0
ARC
  8
001
 62
               3
  5
22C
 10
222.40573735394173
 20
371.62596004246723
 30
0.0
 40
0.8
 50
157.9756871629528
 51
180.0
  0
LINE
  8
001
 62
               3
  5
22D
 10
234.60573735394178
 20
370.8758207264334
 30
0.0
 11
234.60573735394166
 21
365.22596004246731
 31
0.0
  0
LINE
  8
001
 62
               3
  5
22E
 10
233.80573735394182
 20
358.92596004246741
 30
0.0
 11
222.40573735394173
 21
358.92596004246741
 31
0.0
  0
ARC
  8
001
 62
               3
  5
22F
 10
222.40573735394173
 20
359.72596004246736
 30
0.0
 40
0.8
 50
180.0
 51
270.0
  0
ARC
  8
001
 62
               3
  5
230
 10
233.80573735394182
 20
359.72596004246736
 30
0.0
 40
0.8
 50
270.0
 51
0.0
  0
LINE
  8
001
 62
               3
  5
231
 10
221.60573735394181
 20
364.42596004246741
 30
0.0
 11
221.60573735394189
 21
359.72596004246731
 31
0.0
  0
LINE
  8
001
 62
               3
  5
232
 10
234.60573735394175
 20
364.42596004246741
 30
0.0
 11
234.60573735394166
 21
359.72596004246731
 31
0.0
  0
LINE
  8
001
 62
               3
  5
233
 10
224.10573735394178
 20
87.208381754385982
 30
0.0
 11
225.11377399090654
 21
87.208381754385982
 31
0.0
  0
LINE
  8
001
 62
               3
  5
234
 10
232.10573735394178
 20
110.99048803636038
 30
0.0
 11
232.10573735394178
 21
115.95838175438593
 31
0.0
  0
LINE
  8
001
 62
               3
  5
235
 10
224.10573735394178
 20
87.208381754385982
 30
0.0
 11
225.15185394763242
 21
86.162265160695256
 31
0.0
  0
LINE
  8
001
 62
               3
  5
236
 10
224.78223735394181
 20
86.53188175438595
 30
0.0
 11
224.78223735394181
 21
89.958381754385982
 31
0.0
  0
LINE
  8
001
 62
               3
  5
237
 10
224.10573735394178
 20
87.208381754385982
 30
0.0
 11
224.10573735394178
 21
89.958381754385982
 31
0.0
  0
LINE
  8
001
 62
               3
  5
238
 10
224.10573735394178
 20
110.95838175438598
 30
0.0
 11
224.10573735394178
 21
115.95838175438593
 31
0.0
  0
LINE
  8
001
  6
CENTER
  5
239
 10
260.10573735394178
 20
38.363876692113877
 30
0.0
 11
260.10573735394178
 21
137.55288681665809
 31
0.0
  0
LINE
  8
001
 62
               3
  5
23A
 10
224.78223735394181
 20
110.95838175438598
 30
0.0
 11
224.78223735394181
 21
115.95838175438598
 31
0.0
  0
LINE
  8
001
 62
               3
  5
23B
 10
231.42923735394174
 20
110.95838175438598
 30
0.0
 11
231.42923735394174
 21
115.95838175438598
 31
0.0
  0
LINE
  8
001
 62
               3
  5
23C
 10
133.20146282126393
 20
245.26567089842661
 30
0.0
 11
138.20146282126393
 21
245.26567089842661
 31
0.0
  0
LINE
  8
001
 62
               3
  5
23D
 10
133.20146282126393
 20
238.61867089842667
 30
0.0
 11
138.20146282126393
 21
238.61867089842667
 31
0.0
  0
TEXT
  8
001
  5
23E
 10
441.83595152738923
 20
52.359891282008149
 30
0.0
 40
15.0
  1
2006.1.31
 41
0.6750000675000067
  0
TEXT
  8
001
  5
23F
 10
441.83595152738923
 20
34.859891282008149
 30
0.0
 40
15.0
  1
FS-52BS
 41
0.5
  0
ENDSEC
  0
EOF
