  0
SECTION
  2
HEADER
  9
$ACADVER
  1
AC1009
  9
$DWGCODEPAGE
  3
dos932
  9
$INSBASE
 10
0.0
 20
0.0
 30
0.0
  9
$EXTMIN
 10
45.180206298828125
 20
36.067276000976563
 30
1.0000000000000000E+20
  9
$EXTMAX
 10
436.2889404296875
 20
253.73548889160156
 30
-1.0000000000000000E+20
  9
$LIMMIN
 10
0.0
 20
0.0
  9
$LIMMAX
 10
12.0
 20
9.0
  9
$ORTHOMODE
 70
               0
  9
$REGENMODE
 70
               1
  9
$FILLMODE
 70
               1
  9
$QTEXTMODE
 70
               0
  9
$MIRRTEXT
 70
               1
  9
$DRAGMODE
 70
               2
  9
$LTSCALE
 40
6.5184789021809895
  9
$OSMODE
 70
               0
  9
$ATTMODE
 70
               1
  9
$TEXTSIZE
 40
3.2000000000000002
  9
$TRACEWID
 40
0.05
  9
$TEXTSTYLE
  7
STANDARD
  9
$CLAYER
  8
0
  9
$CELTYPE
  6
CONTINUOUS
  9
$CECOLOR
 62
             256
  9
$DIMSCALE
 40
1.0
  9
$DIMASZ
 40
0.18
  9
$DIMEXO
 40
0.0625
  9
$DIMDLI
 40
0.38
  9
$DIMRND
 40
0.0
  9
$DIMDLE
 40
0.0
  9
$DIMEXE
 40
0.18
  9
$DIMTP
 40
0.0
  9
$DIMTM
 40
0.0
  9
$DIMTXT
 40
0.18
  9
$DIMCEN
 40
0.09
  9
$DIMTSZ
 40
0.0
  9
$DIMTOL
 70
               0
  9
$DIMLIM
 70
               0
  9
$DIMTIH
 70
               1
  9
$DIMTOH
 70
               1
  9
$DIMSE1
 70
               0
  9
$DIMSE2
 70
               0
  9
$DIMTAD
 70
               0
  9
$DIMZIN
 70
               0
  9
$DIMBLK
  1

  9
$DIMASO
 70
               1
  9
$DIMSHO
 70
               1
  9
$DIMPOST
  1

  9
$DIMAPOST
  1

  9
$DIMALT
 70
               0
  9
$DIMALTD
 70
               2
  9
$DIMALTF
 40
25.399999999999999
  9
$DIMLFAC
 40
1.0
  9
$DIMTOFL
 70
               0
  9
$DIMTVP
 40
0.0
  9
$DIMTIX
 70
               0
  9
$DIMSOXD
 70
               0
  9
$DIMSAH
 70
               0
  9
$DIMBLK1
  1

  9
$DIMBLK2
  1

  9
$DIMSTYLE
  2
STANDARD
  9
$DIMCLRD
 70
               0
  9
$DIMCLRE
 70
               0
  9
$DIMCLRT
 70
               0
  9
$DIMTFAC
 40
1.0
  9
$DIMGAP
 40
0.09
  9
$LUNITS
 70
               2
  9
$LUPREC
 70
               4
  9
$AXISMODE
 70
               0
  9
$AXISUNIT
 10
0.0
 20
0.0
  9
$SKETCHINC
 40
0.1
  9
$FILLETRAD
 40
0.0
  9
$AUNITS
 70
               0
  9
$AUPREC
 70
               0
  9
$MENU
  1
acad
  9
$ELEVATION
 40
0.0
  9
$PELEVATION
 40
0.0
  9
$THICKNESS
 40
0.0
  9
$LIMCHECK
 70
               0
  9
$BLIPMODE
 70
               1
  9
$CHAMFERA
 40
0.0
  9
$CHAMFERB
 40
0.0
  9
$SKPOLY
 70
               0
  9
$TDCREATE
 40
0.000000000
  9
$TDUPDATE
 40
0.000000000
  9
$TDINDWG
 40
0.0000000000
  9
$TDUSRTIMER
 40
0.0000000000
  9
$USRTIMER
 70
               1
  9
$ANGBASE
 50
0.0
  9
$ANGDIR
 70
               0
  9
$PDMODE
 70
               0
  9
$PDSIZE
 40
0.0
  9
$PLINEWID
 40
0.0
  9
$COORDS
 70
               1
  9
$SPLFRAME
 70
               0
  9
$SPLINETYPE
 70
               6
  9
$SPLINESEGS
 70
               8
  9
$ATTDIA
 70
               0
  9
$ATTREQ
 70
               1
  9
$HANDLING
 70
               1
  9
$HANDSEED
  5
1CA
  9
$SURFTAB1
 70
               6
  9
$SURFTAB2
 70
               6
  9
$SURFTYPE
 70
               6
  9
$SURFU
 70
               6
  9
$SURFV
 70
               6
  9
$UCSNAME
  2

  9
$UCSORG
 10
0.0
 20
0.0
 30
0.0
  9
$UCSXDIR
 10
1.0
 20
0.0
 30
0.0
  9
$UCSYDIR
 10
0.0
 20
1.0
 30
0.0
  9
$PUCSNAME
  2

  9
$PUCSORG
 10
0.0
 20
0.0
 30
0.0
  9
$PUCSXDIR
 10
1.0
 20
0.0
 30
0.0
  9
$PUCSYDIR
 10
0.0
 20
1.0
 30
0.0
  9
$USERI1
 70
               0
  9
$USERI2
 70
               0
  9
$USERI3
 70
               0
  9
$USERI4
 70
               0
  9
$USERI5
 70
               0
  9
$USERR1
 40
0.0
  9
$USERR2
 40
0.0
  9
$USERR3
 40
0.0
  9
$USERR4
 40
0.0
  9
$USERR5
 40
0.0
  9
$WORLDVIEW
 70
               1
  9
$SHADEDGE
 70
               3
  9
$SHADEDIF
 70
              70
  9
$TILEMODE
 70
               1
  9
$MAXACTVP
 70
              16
  9
$PINSBASE
 10
0.0
 20
0.0
 30
0.0
  9
$PLIMCHECK
 70
               0
  9
$PEXTMIN
 10
1.0000000000000000E+20
 20
1.0000000000000000E+20
 30
1.0000000000000000E+20
  9
$PEXTMAX
 10
-1.0000000000000000E+20
 20
-1.0000000000000000E+20
 30
-1.0000000000000000E+20
  9
$PLIMMIN
 10
0.0
 20
0.0
  9
$PLIMMAX
 10
12.0
 20
9.0
  9
$UNITMODE
 70
               0
  9
$VISRETAIN
 70
               0
  9
$PLINEGEN
 70
               0
  9
$PSLTSCALE
 70
               1
  9
$TREEDEPTH
 70
            3020
  0
ENDSEC
  0
SECTION
  2
TABLES
  0
TABLE
  2
VPORT
 70
               1
  0
VPORT
  2
*ACTIVE
 70
               0
 10
0.0
 20
0.0
 11
1.0
 21
1.0
 12
240.73457336425781
 22
144.90138244628906
 13
0.0
 23
0.0
 14
1.0
 24
1.0
 15
0.0
 25
0.0
 16
0.0
 26
0.0
 36
1.0
 17
0.0
 27
0.0
 37
0.0
 40
233.56153503848427
 41
1.6912879999999999
 42
50.0
 43
0.0
 44
0.0
 50
0.0
 51
0.0
 71
               0
 72
             100
 73
               1
 74
               1
 75
               0
 76
               0
 77
               0
 78
               0
  0
ENDTAB
  0
TABLE
  2
LTYPE
 70
               5
  0
LTYPE
  2
CONTINUOUS
 70
              64
  3
Solid line
 72
              65
 73
               0
 40
0.0
  0
LTYPE
  2
DASHED
 70
              64
  3
DASHED
 72
              65
 73
               2
 40
0.75
 49
0.5
 49
-0.25
  0
LTYPE
  2
HIDDEN
 70
              64
  3
HIDDEN
 72
              65
 73
               2
 40
0.375
 49
0.25
 49
-0.125
  0
LTYPE
  2
CENTER
 70
              64
  3
CENTER
 72
              65
 73
               4
 40
2.0
 49
1.25
 49
-0.25
 49
0.25
 49
-0.25
  0
LTYPE
  2
PHANTOM
 70
              64
  3
PHANTOM
 72
              65
 73
               6
 40
2.5
 49
1.25
 49
-0.25
 49
0.25
 49
-0.25
 49
0.25
 49
-0.25
  0
ENDTAB
  0
TABLE
  2
LAYER
 70
               2
  0
LAYER
  2
0
 70
               0
 62
               7
  6
CONTINUOUS
  0
LAYER
  2
001
 70
               0
 62
               7
  6
CONTINUOUS
  0
ENDTAB
  0
TABLE
  2
STYLE
 70
               2
  0
STYLE
  2
STANDARD
 70
               0
 40
0.0
 41
1.0
 50
0.0
 71
               0
 42
0.2
  3
TXT
  4
BIGFONT
  0
STYLE
  2
TATEGAKI
 70
               4
 40
1.0
 41
1.0
 50
0.0
 71
               0
 42
0.2
  3
TXT
  4
BIGFONT
  0
ENDTAB
  0
TABLE
  2
VIEW
 70
               0
  0
ENDTAB
  0
TABLE
  2
UCS
 70
               0
  0
ENDTAB
  0
TABLE
  2
APPID
 70
               1
  0
APPID
  2
ACAD
 70
               0
  0
ENDTAB
  0
TABLE
  2
DIMSTYLE
 70
               1
  0
DIMSTYLE
  2
STANDARD
 70
               0
  3

  4

  5

  6

  7

 40
1.0
 41
0.18
 42
0.0625
 43
0.38
 44
0.18
 45
0.0
 46
0.0
 47
0.0
 48
0.0
 71
               0
 72
               0
 73
               1
 74
               1
 75
               0
 76
               0
 77
               0
 78
               0
140
0.18
141
0.09
142
0.0
143
25.399999999999999
144
1.0
145
0.0
146
1.0
147
0.09
170
               0
171
               2
172
               0
173
               0
174
               0
175
               0
176
               0
177
               0
178
               0
  0
ENDTAB
  0
ENDSEC
  0
SECTION
  2
BLOCKS
  0
ENDSEC
  0
SECTION
  2
ENTITIES
  0
LINE
  8
001
  6
CENTER
  5
23
 10
170.18020729078768
 20
173.73549163368912
 30
0.0
 11
170.18020729078768
 21
253.73549163368912
 31
0.0
  0
LINE
  8
001
 62
               3
  5
24
 10
52.180207290787678
 20
178.73549163368912
 30
0.0
 11
170.18020729078768
 21
178.73549163368912
 31
0.0
  0
LINE
  8
001
 62
               3
  5
25
 10
50.180207290787678
 20
246.73549163368912
 30
0.0
 11
50.180207290787678
 21
180.73549163368912
 31
0.0
  0
LINE
  8
001
 62
               3
  5
26
 10
52.180207290787678
 20
178.73549163368912
 30
0.0
 11
50.180207290787678
 21
180.73549163368912
 31
0.0
  0
LINE
  8
001
 62
               3
  5
27
 10
50.180207290787678
 20
246.73549163368912
 30
0.0
 11
52.180207290787678
 21
248.73549163368912
 31
0.0
  0
LINE
  8
001
 62
               3
  5
28
 10
202.90634363469491
 20
231.73549163368912
 30
0.0
 11
210.18020729078791
 21
231.73549163368912
 31
0.0
  0
ARC
  8
001
 62
               3
  5
29
 10
210.18020729078768
 20
228.73549163368912
 30
0.0
 40
3.0
 50
0.0000000000000127
 51
90.000000000000014
  0
ARC
  8
001
 62
               3
  5
2A
 10
136.1949163548548
 20
230.73549163368912
 30
0.0
 40
3.0
 50
270.0
 51
333.42503048101253
  0
ARC
  8
001
 62
               3
  5
2B
 10
136.1949163548548
 20
196.73549163368912
 30
0.0
 40
3.0
 50
26.574969518987515
 51
90.0
  0
LINE
  8
001
 62
               3
  5
2C
 10
131.18020729078768
 20
227.73549163368912
 30
0.0
 11
136.1949163548548
 21
227.73549163368912
 31
0.0
  0
LINE
  8
001
 62
               3
  5
2D
 10
126.18020729078768
 20
204.73549163368912
 30
0.0
 11
126.18020729078768
 21
222.73549163368912
 31
0.0
  0
LINE
  8
001
 62
               3
  5
2E
 10
131.18020729078768
 20
199.73549163368912
 30
0.0
 11
136.1949163548548
 21
199.73549163368912
 31
0.0
  0
ARC
  8
001
 62
               3
  5
2F
 10
131.18020729078768
 20
222.73549163368912
 30
0.0
 40
5.0
 50
90.0
 51
180.0
  0
ARC
  8
001
 62
               3
  5
30
 10
131.18020729078768
 20
204.73549163368912
 30
0.0
 40
5.0
 50
180.0
 51
270.0
  0
LINE
  8
001
 62
               3
  5
31
 10
198.74592100495903
 20
190.73549163368912
 30
0.0
 11
210.18020729078773
 21
190.73549163368912
 31
0.0
  0
ARC
  8
001
 62
               3
  5
32
 10
210.18020729078768
 20
193.73549163368912
 30
0.0
 40
3.0
 50
270.0
 51
0.0
  0
ARC
  8
001
 62
               3
  5
33
 10
198.74592100495903
 20
185.73549163368912
 30
0.0
 40
5.0
 50
90.0
 51
135.57299599919432
  0
ARC
  8
001
 62
               3
  5
34
 10
202.90634363469491
 20
236.73549163368912
 30
0.0
 40
5.0
 50
215.09963219539353
 51
270.0
  0
LINE
  8
001
 62
               3
  5
35
 10
213.18020729078768
 20
228.73549163368912
 30
0.0
 11
213.18020729078768
 21
215.73549163368912
 31
0.0
  0
LINE
  8
001
 62
               3
  5
36
 10
196.55973588000285
 20
215.73549163368912
 30
0.0
 11
213.18020729078791
 21
215.73549163368912
 31
0.0
  0
LINE
  8
001
 62
               3
  5
37
 10
196.55973588000285
 20
215.73549163368912
 30
0.0
 11
196.05973588000285
 21
216.23549163368912
 31
0.0
  0
LINE
  8
001
 62
               3
  5
38
 10
196.55973588000285
 20
211.73549163368912
 30
0.0
 11
213.18020729078791
 21
211.73549163368912
 31
0.0
  0
LINE
  8
001
 62
               3
  5
39
 10
196.55973588000285
 20
211.73549163368912
 30
0.0
 11
196.05973588000285
 21
211.23549163368912
 31
0.0
  0
LINE
  8
001
 62
               3
  5
3A
 10
213.18020729078768
 20
211.73549163368912
 30
0.0
 11
213.18020729078768
 21
193.73549163368912
 31
0.0
  0
LINE
  8
001
 62
               3
  5
3B
 10
126.18020729078768
 20
126.73549163368924
 30
0.0
 11
126.18020729078768
 21
123.73549163368924
 31
0.0
  0
LINE
  8
001
 62
               3
  5
3C
 10
128.18020729078791
 20
128.73549163368924
 30
0.0
 11
126.18020729078785
 21
126.73549163368924
 31
0.0
  0
LINE
  8
001
 62
               3
  5
3D
 10
138.10217742609694
 20
126.73549163368924
 30
0.0
 11
140.10217742609694
 21
128.73549163368924
 31
0.0
  0
LINE
  8
001
 62
               3
  5
3E
 10
203.18020729078768
 20
48.735491633689207
 30
0.0
 11
137.18020729078773
 21
48.735491633689207
 31
0.0
  0
LINE
  8
001
 62
               3
  5
3F
 10
128.18020729078791
 20
128.73549163368924
 30
0.0
 11
203.18020729078785
 21
128.73549163368924
 31
0.0
  0
LINE
  8
001
 62
               3
  5
40
 10
135.18020729078768
 20
50.735491633689207
 30
0.0
 11
137.18020729078773
 21
48.735491633689207
 31
0.0
  0
LINE
  8
001
 62
               3
  5
41
 10
203.18020729078768
 20
48.735491633689207
 30
0.0
 11
205.18020729078768
 21
50.735491633689264
 31
0.0
  0
LINE
  8
001
 62
               3
  5
42
 10
205.18020729078768
 20
126.73549163368924
 30
0.0
 11
203.18020729078768
 21
128.73549163368924
 31
0.0
  0
LINE
  8
001
 62
               3
  5
43
 10
50.180207290787678
 20
121.73549163368924
 30
0.0
 11
50.180207290787678
 21
55.735491633689236
 31
0.0
  0
LINE
  8
001
 62
               3
  5
44
 10
52.180207290787678
 20
53.735491633689207
 30
0.0
 11
50.180207290787678
 21
55.735491633689207
 31
0.0
  0
LINE
  8
001
 62
               3
  5
45
 10
50.180207290787678
 20
121.73549163368924
 30
0.0
 11
52.180207290787678
 21
123.73549163368924
 31
0.0
  0
ARC
  8
001
 62
               3
  5
46
 10
123.18020729078768
 20
54.735491633689207
 30
0.0
 40
3.0
 50
180.0
 51
270.0
  0
ARC
  8
001
 62
               3
  5
47
 10
117.18020729078768
 20
58.514176456056845
 30
0.0
 40
3.0
 50
0.0
 51
90.0
  0
LINE
  8
001
 62
               3
  5
48
 10
139.9588921131554
 20
61.514176456056845
 30
0.0
 11
120.18020729078779
 21
61.514176456056845
 31
0.0
  0
LINE
  8
001
 62
               3
  5
49
 10
138.10217742609694
 20
126.73549163368924
 30
0.0
 11
138.10217742609694
 21
123.81352149838014
 31
0.0
  0
ARC
  8
001
 62
               3
  5
4A
 10
135.10217742609694
 20
123.81352149838008
 30
0.0
 40
3.0
 50
270.0
 51
0.0
  0
LINE
  8
001
 62
               3
  5
4B
 10
142.9588921131554
 20
51.735491633689207
 30
0.0
 11
142.9588921131554
 21
58.514176456056816
 31
0.0
  0
ARC
  8
001
 62
               3
  5
4C
 10
139.9588921131554
 20
58.514176456056845
 30
0.0
 40
3.0
 50
0.0000000000000127
 51
90.000000000000014
  0
LINE
  8
001
 62
               3
  5
4D
 10
170.18020729078768
 20
88.735491633689236
 30
0.0
 11
138.8779656392706
 21
120.03773328520636
 31
0.0
  0
LINE
  8
001
 62
               3
  5
4E
 10
143.82136093584592
 20
62.376645278747247
 30
0.0
 11
170.18020729078779
 21
88.735491633689179
 31
0.0
  0
LINE
  8
001
 62
               3
  5
4F
 10
120.18020729078768
 20
54.735491633689207
 30
0.0
 11
120.18020729078768
 21
58.514176456056816
 31
0.0
  0
LINE
  8
001
 62
               3
  5
50
 10
202.18020729078768
 20
83.735491633689236
 30
0.0
 11
181.18020729078768
 21
83.735491633689236
 31
0.0
  0
LINE
  8
001
 62
               3
  5
51
 10
181.18020729078768
 20
73.735491633689236
 30
0.0
 11
205.18020729078768
 21
73.735491633689236
 31
0.0
  0
LINE
  8
001
 62
               3
  5
52
 10
205.18020729078768
 20
73.735491633689236
 30
0.0
 11
205.18020729078768
 21
50.735491633689293
 31
0.0
  0
LINE
  8
001
 62
               3
  5
53
 10
178.18020729078768
 20
76.735491633689236
 30
0.0
 11
178.18020729078768
 21
80.735491633689236
 31
0.0
  0
ARC
  8
001
 62
               3
  5
54
 10
181.18020729078768
 20
80.735491633689236
 30
0.0
 40
3.0
 50
90.0
 51
180.0
  0
ARC
  8
001
 62
               3
  5
55
 10
181.18020729078768
 20
76.735491633689236
 30
0.0
 40
3.0
 50
180.0
 51
270.0
  0
CIRCLE
  8
001
 62
               3
  5
56
 10
202.18020729078768
 20
106.73549163368924
 30
0.0
 40
7.0
  0
LINE
  8
001
 62
               3
  5
57
 10
142.9588921131554
 20
51.735491633689207
 30
0.0
 11
123.18020729078768
 21
51.735491633689207
 31
0.0
  0
LINE
  8
001
 62
               3
  5
58
 10
95.180207290787678
 20
56.735491633689236
 30
0.0
 11
95.180207290787678
 21
77.735491633689236
 31
0.0
  0
LINE
  8
001
 62
               3
  5
59
 10
105.18020729078768
 20
77.735491633689236
 30
0.0
 11
105.18020729078768
 21
53.735491633689236
 31
0.0
  0
LINE
  8
001
 62
               3
  5
5A
 10
102.18020729078768
 20
80.735491633689236
 30
0.0
 11
98.180207290787678
 21
80.735491633689236
 31
0.0
  0
ARC
  8
001
 62
               3
  5
5B
 10
98.180207290787678
 20
77.735491633689236
 30
0.0
 40
3.0
 50
89.999999999999972
 51
179.99999999999997
  0
ARC
  8
001
 62
               3
  5
5C
 10
102.18020729078768
 20
77.735491633689236
 30
0.0
 40
3.0
 50
0.0
 51
89.999999999999986
  0
CIRCLE
  8
001
 62
               3
  5
5D
 10
72.180207290787678
 20
56.735491633689236
 30
0.0
 40
7.0
  0
LINE
  8
001
 62
               3
  5
5E
 10
118.70807133578813
 20
53.735491633689207
 30
0.0
 11
105.18020729078773
 21
53.735491633689207
 31
0.0
  0
LINE
  8
001
 62
               3
  5
5F
 10
123.18020729078768
 20
123.73549163368924
 30
0.0
 11
52.180207290787678
 21
123.73549163368924
 31
0.0
  0
ARC
  8
001
 62
               3
  5
60
 10
123.18020729078768
 20
123.81352149838008
 30
0.0
 40
3.0
 50
270.0
 51
0.0
  0
LINE
  8
001
 62
               3
  5
61
 10
126.18020729078768
 20
120.81352149838008
 30
0.0
 11
135.18020729078768
 21
120.81352149838008
 31
0.0
  0
ARC
  8
001
 62
               3
  5
62
 10
134.18020729078768
 20
50.735491633689207
 30
0.0
 40
1.0
 50
0.0
 51
90.0
  0
ARC
  8
001
 62
               3
  5
63
 10
118.70807133578813
 20
50.735491633689207
 30
0.0
 40
3.0
 50
41.810314895778461
 51
90.0
  0
LINE
  8
001
  6
CENTER
  5
64
 10
175.18020729078768
 20
88.735491633689236
 30
0.0
 11
45.180207290787791
 21
88.735491633689236
 31
0.0
  0
LINE
  8
001
  6
CENTER
  5
65
 10
170.18020729078768
 20
133.73549163368912
 30
0.0
 11
170.18020729078768
 21
43.735491633689179
 31
0.0
  0
LINE
  8
001
 62
               3
  5
66
 10
210.18020729078768
 20
99.185657198418454
 30
0.0
 11
210.18020729078768
 21
91.735491633689207
 31
0.0
  0
ARC
  8
001
 62
               3
  5
67
 10
202.18020729078768
 20
91.735491633689236
 30
0.0
 40
8.0
 50
270.0
 51
0.0
  0
ARC
  8
001
 62
               3
  5
68
 10
202.18020729078768
 20
106.73549163368924
 30
0.0
 40
11.0
 50
316.65824177277756
 51
90.0
  0
LINE
  8
001
 62
               3
  5
69
 10
205.18020729078791
 20
119.38460227436272
 30
0.0
 11
205.18020729078791
 21
126.73549163368918
 31
0.0
  0
LINE
  8
001
 62
               3
  5
6A
 10
196.56201920733366
 20
117.73549163368924
 30
0.0
 11
202.18020729078785
 21
117.73549163368924
 31
0.0
  0
ARC
  8
001
 62
               3
  5
6B
 10
208.18020729078791
 20
119.38460227436272
 30
0.0
 40
3.0
 50
180.0
 51
244.62306647484746
  0
ARC
  8
001
 62
               3
  5
6C
 10
123.18020729078768
 20
126.73549163368924
 30
0.0
 40
3.0
 50
270.0
 51
0.0
  0
LINE
  8
001
 62
               3
  5
6D
 10
196.56201920733366
 20
110.91113082534994
 30
0.0
 11
196.56201920733366
 21
117.73549163368918
 31
0.0
  0
LINE
  8
001
 62
               3
  5
6E
 10
79.730041726058573
 20
48.735491633689207
 30
0.0
 11
87.18020729078782
 21
48.735491633689207
 31
0.0
  0
ARC
  8
001
 62
               3
  5
6F
 10
87.180207290787678
 20
56.735491633689236
 30
0.0
 40
8.0
 50
270.0
 51
0.0
  0
ARC
  8
001
 62
               3
  5
70
 10
72.180207290787678
 20
56.735491633689236
 30
0.0
 40
11.0
 50
180.0
 51
313.34175822722244
  0
LINE
  8
001
 62
               3
  5
71
 10
59.531096650114307
 20
53.735491633689151
 30
0.0
 11
52.180207290787848
 21
53.735491633689151
 31
0.0
  0
LINE
  8
001
 62
               3
  5
72
 10
61.180207290787678
 20
62.353679717143365
 30
0.0
 11
61.180207290787678
 21
56.735491633689179
 31
0.0
  0
ARC
  8
001
 62
               3
  5
73
 10
59.531096650114307
 20
50.735491633689151
 30
0.0
 40
3.0
 50
25.376933525152523
 51
89.999999999999986
  0
LINE
  8
001
 62
               3
  5
74
 10
68.004568099126971
 20
62.353679717143365
 30
0.0
 11
61.180207290787735
 21
62.353679717143365
 31
0.0
  0
LINE
  8
001
 62
               3
  5
75
 10
262.09213778154418
 20
128.73549163368924
 30
0.0
 11
328.09213778154418
 21
128.73549163368924
 31
0.0
  0
LINE
  8
001
 62
               3
  5
76
 10
330.09213778154418
 20
50.735491633689207
 30
0.0
 11
330.09213778154418
 21
126.73549163368921
 31
0.0
  0
LINE
  8
001
 62
               3
  5
77
 10
260.09213778154418
 20
126.73549163368924
 30
0.0
 11
262.09213778154412
 21
128.73549163368924
 31
0.0
  0
LINE
  8
001
 62
               3
  5
78
 10
260.09213778154418
 20
50.735491633689207
 30
0.0
 11
262.09213778154424
 21
48.735491633689207
 31
0.0
  0
LINE
  8
001
 62
               3
  5
79
 10
328.09213778154418
 20
48.735491633689207
 30
0.0
 11
330.09213778154418
 21
50.735491633689264
 31
0.0
  0
LINE
  8
001
 62
               3
  5
7A
 10
330.09213778154418
 20
126.73549163368924
 30
0.0
 11
328.09213778154418
 21
128.73549163368924
 31
0.0
  0
LINE
  8
001
 62
               3
  5
7B
 10
273.09213778154418
 20
45.735491633689207
 30
0.0
 11
293.59213778154418
 21
45.735491633689207
 31
0.0
  0
LINE
  8
001
 62
               3
  5
7C
 10
317.09213778154418
 20
45.735491633689207
 30
0.0
 11
296.59213778154418
 21
45.735491633689207
 31
0.0
  0
LINE
  8
001
 62
               3
  5
7D
 10
328.09213778154418
 20
48.735491633689207
 30
0.0
 11
262.09213778154424
 21
48.735491633689207
 31
0.0
  0
ARC
  8
001
 62
               3
  5
7E
 10
317.09213778154418
 20
48.735491633689207
 30
0.0
 40
3.0
 50
270.0
 51
0.0
  0
ARC
  8
001
 62
               3
  5
7F
 10
273.09213778154418
 20
48.735491633689207
 30
0.0
 40
3.0
 50
180.0
 51
270.0
  0
LINE
  8
001
 62
               3
  5
80
 10
296.59213778154418
 20
48.735491633689207
 30
0.0
 11
296.59213778154418
 21
45.735491633689207
 31
0.0
  0
LINE
  8
001
 62
               3
  5
81
 10
293.59213778154418
 20
48.735491633689207
 30
0.0
 11
293.59213778154418
 21
45.735491633689207
 31
0.0
  0
LINE
  8
001
 62
               3
  5
82
 10
328.31863718577512
 20
73.735491633689236
 30
0.0
 11
261.8656423298716
 21
73.73549163368925
 31
0.0
  0
LINE
  8
001
  6
CENTER
  5
83
 10
295.09213778154418
 20
133.73549163368924
 30
0.0
 11
295.09213778154418
 21
40.735491633689236
 31
0.0
  0
ARC
  8
001
 62
               3
  5
84
 10
310.09213778154418
 20
86.735491633689236
 30
0.0
 40
3.0
 50
270.0
 51
0.0
  0
LINE
  8
001
 62
               3
  5
85
 10
313.09213778154418
 20
86.735491633689236
 30
0.0
 11
313.09213778154418
 21
114.73549163368924
 31
0.0
  0
ARC
  8
001
 62
               3
  5
86
 10
310.09213778154418
 20
114.73549163368924
 30
0.0
 40
3.0
 50
0.0
 51
90.0
  0
ARC
  8
001
 62
               3
  5
87
 10
275.09213778154418
 20
86.735491633689236
 30
0.0
 40
3.0
 50
180.0
 51
270.0
  0
LINE
  8
001
 62
               3
  5
88
 10
272.09213778154418
 20
86.735491633689236
 30
0.0
 11
272.09213778154418
 21
114.73549163368924
 31
0.0
  0
ARC
  8
001
 62
               3
  5
89
 10
275.09213778154418
 20
114.73549163368924
 30
0.0
 40
3.0
 50
90.0
 51
180.0
  0
LINE
  8
001
 62
               3
  5
8A
 10
297.09213778154418
 20
128.73549163368924
 30
0.0
 11
297.09213778154418
 21
83.735491633689293
 31
0.0
  0
LINE
  8
001
 62
               3
  5
8B
 10
328.31863323321642
 20
83.735491633689236
 30
0.0
 11
297.09213778154418
 21
83.735491633689236
 31
0.0
  0
LINE
  8
001
 62
               3
  5
8C
 10
297.09213778154418
 20
117.73549163368924
 30
0.0
 11
310.09213778154418
 21
117.73549163368924
 31
0.0
  0
LINE
  8
001
 62
               3
  5
8D
 10
297.09213778154418
 20
99.185657198418454
 30
0.0
 11
310.09213778154418
 21
99.185657198418454
 31
0.0
  0
LINE
  8
001
 62
               3
  5
8E
 10
293.09213778154418
 20
128.73549163368924
 30
0.0
 11
293.09213778154418
 21
83.735491633689293
 31
0.0
  0
LINE
  8
001
 62
               3
  5
8F
 10
261.86564232986944
 20
83.735491633689236
 30
0.0
 11
293.0921377815443
 21
83.735491633689236
 31
0.0
  0
LINE
  8
001
 62
               3
  5
90
 10
275.09213778154418
 20
117.73549163368924
 30
0.0
 11
293.09213778154418
 21
117.73549163368924
 31
0.0
  0
LINE
  8
001
 62
               3
  5
91
 10
275.09213778154418
 20
99.185657198418454
 30
0.0
 11
293.09213778154418
 21
99.185657198418454
 31
0.0
  0
LINE
  8
001
 62
               3
  5
92
 10
261.01868770674247
 20
80.735491633689236
 30
0.0
 11
261.01868770674247
 21
76.735491633689236
 31
0.0
  0
POLYLINE
  8
001
 62
               3
  5
93
 66
               1
 10
0.0
 20
0.0
 30
0.0
  0
VERTEX
  8
001
 62
               3
  5
94
 10
261.01868770674247
 20
76.735491633689236
 30
0.0
  0
VERTEX
  8
001
 62
               3
  5
95
 10
261.02196203209525
 20
76.489127986590475
 30
0.0
  0
VERTEX
  8
001
 62
               3
  5
96
 10
261.02832525897662
 20
76.242854215493509
 30
0.0
  0
VERTEX
  8
001
 62
               3
  5
97
 10
261.0398997618322
 20
76.003361775882766
 30
0.0
  0
VERTEX
  8
001
 62
               3
  5
98
 10
261.05703195384518
 20
75.764185494137593
 30
0.0
  0
VERTEX
  8
001
 62
               3
  5
99
 10
261.07823637233429
 20
75.538564551972527
 30
0.0
  0
VERTEX
  8
001
 62
               3
  5
9A
 10
261.10490852105846
 20
75.313512401098478
 30
0.0
  0
VERTEX
  8
001
 62
               3
  5
9B
 10
261.13498935619435
 20
75.107449983320237
 30
0.0
  0
VERTEX
  8
001
 62
               3
  5
9C
 10
261.17152978379858
 20
74.902502045417464
 30
0.0
  0
VERTEX
  8
001
 62
               3
  5
9D
 10
261.21076636955723
 20
74.720406533386253
 30
0.0
  0
VERTEX
  8
001
 62
               3
  5
9E
 10
261.25743348117084
 20
74.539868047427632
 30
0.0
  0
VERTEX
  8
001
 62
               3
  5
9F
 10
261.30466905474185
 20
74.386837798018789
 30
0.0
  0
VERTEX
  8
001
 62
               3
  5
A0
 10
261.36100322454098
 20
74.237502885550384
 30
0.0
  0
VERTEX
  8
001
 62
               3
  5
A1
 10
261.41752931614599
 20
74.115991579948854
 30
0.0
  0
VERTEX
  8
001
 62
               3
  5
A2
 10
261.48430178124289
 20
73.998199525710064
 30
0.0
  0
VERTEX
  8
001
 62
               3
  5
A3
 10
261.54687130700393
 20
73.908786489661594
 30
0.0
  0
VERTEX
  8
001
 62
               3
  5
A4
 10
261.6226279426881
 20
73.834196474525712
 30
0.0
  0
VERTEX
  8
001
 62
               3
  5
A5
 10
261.73716083024897
 20
73.774512995901105
 30
0.0
  0
VERTEX
  8
001
 62
               3
  5
A6
 10
261.86564232987183
 20
73.735491633689236
 30
0.0
  0
SEQEND
  8
001
  5
A7
  0
POLYLINE
  8
001
 62
               3
  5
A8
 66
               1
 10
0.0
 20
0.0
 30
0.0
  0
VERTEX
  8
001
 62
               3
  5
A9
 10
328.31863323321664
 20
73.735491633689236
 30
0.0
  0
VERTEX
  8
001
 62
               3
  5
AA
 10
328.40421021180242
 20
73.752340597224006
 30
0.0
  0
VERTEX
  8
001
 62
               3
  5
AB
 10
328.48462104373681
 20
73.780300472984152
 30
0.0
  0
VERTEX
  8
001
 62
               3
  5
AC
 10
328.56780326008703
 20
73.837774733493717
 30
0.0
  0
VERTEX
  8
001
 62
               3
  5
AD
 10
328.63850895082857
 20
73.913481173040381
 30
0.0
  0
VERTEX
  8
001
 62
               3
  5
AE
 10
328.71412708636029
 20
74.020799721365492
 30
0.0
  0
VERTEX
  8
001
 62
               3
  5
AF
 10
328.77670826256855
 20
74.134898662964829
 30
0.0
  0
VERTEX
  8
001
 62
               3
  5
B0
 10
328.84209157597411
 20
74.284257078195793
 30
0.0
  0
VERTEX
  8
001
 62
               3
  5
B1
 10
328.89641183416012
 20
74.438447937055173
 30
0.0
  0
VERTEX
  8
001
 62
               3
  5
B2
 10
328.9487847113254
 20
74.620091715546067
 30
0.0
  0
VERTEX
  8
001
 62
               3
  5
B3
 10
328.99230830495532
 20
74.80391175675355
 30
0.0
  0
VERTEX
  8
001
 62
               3
  5
B4
 10
329.03376874064872
 20
75.015823531597562
 30
0.0
  0
VERTEX
  8
001
 62
               3
  5
B5
 10
329.06779680242533
 20
75.229092736880489
 30
0.0
  0
VERTEX
  8
001
 62
               3
  5
B6
 10
329.09703526748677
 20
75.456526325740739
 30
0.0
  0
VERTEX
  8
001
 62
               3
  5
B7
 10
329.12033391775805
 20
75.684648405732489
 30
0.0
  0
VERTEX
  8
001
 62
               3
  5
B8
 10
329.13958210780828
 20
75.927762350300085
 30
0.0
  0
VERTEX
  8
001
 62
               3
  5
B9
 10
329.15297271176274
 20
76.171240087979442
 30
0.0
  0
VERTEX
  8
001
 62
               3
  5
BA
 10
329.16139074740823
 20
76.453292140377272
 30
0.0
  0
VERTEX
  8
001
 62
               3
  5
BB
 10
329.16558785634589
 20
76.735491633689236
 30
0.0
  0
SEQEND
  8
001
  5
BC
  0
LINE
  8
001
 62
               3
  5
BD
 10
329.16558785634567
 20
76.735491633689236
 30
0.0
 11
329.16558785634567
 21
80.735491633689236
 31
0.0
  0
POLYLINE
  8
001
 62
               3
  5
BE
 66
               1
 10
0.0
 20
0.0
 30
0.0
  0
VERTEX
  8
001
 62
               3
  5
BF
 10
329.16558785634567
 20
80.735491633689236
 30
0.0
  0
VERTEX
  8
001
 62
               3
  5
C0
 10
329.16231353099295
 20
80.981855280787997
 30
0.0
  0
VERTEX
  8
001
 62
               3
  5
C1
 10
329.15595030411163
 20
81.228129051884963
 30
0.0
  0
VERTEX
  8
001
 62
               3
  5
C2
 10
329.14437580125599
 20
81.467621491495706
 30
0.0
  0
VERTEX
  8
001
 62
               3
  5
C3
 10
329.12724360924295
 20
81.706797773240879
 30
0.0
  0
VERTEX
  8
001
 62
               3
  5
C4
 10
329.1060391907539
 20
81.932418715405944
 30
0.0
  0
VERTEX
  8
001
 62
               3
  5
C5
 10
329.07936704202979
 20
82.157470866279994
 30
0.0
  0
VERTEX
  8
001
 62
               3
  5
C6
 10
329.0492862068939
 20
82.363533284058235
 30
0.0
  0
VERTEX
  8
001
 62
               3
  5
C7
 10
329.01274577928967
 20
82.568481221961008
 30
0.0
  0
VERTEX
  8
001
 62
               3
  5
C8
 10
328.97350919353102
 20
82.750576733992233
 30
0.0
  0
VERTEX
  8
001
 62
               3
  5
C9
 10
328.92684208191741
 20
82.93111521995084
 30
0.0
  0
VERTEX
  8
001
 62
               3
  5
CA
 10
328.87960650834634
 20
83.084145469359669
 30
0.0
  0
VERTEX
  8
001
 62
               3
  5
CB
 10
328.82327233854716
 20
83.233480381828073
 30
0.0
  0
VERTEX
  8
001
 62
               3
  5
CC
 10
328.7667462469422
 20
83.354991687429617
 30
0.0
  0
VERTEX
  8
001
 62
               3
  5
CD
 10
328.69997378184536
 20
83.472783741668408
 30
0.0
  0
VERTEX
  8
001
 62
               3
  5
CE
 10
328.63740425608432
 20
83.562196777716878
 30
0.0
  0
VERTEX
  8
001
 62
               3
  5
CF
 10
328.56164762040015
 20
83.63678679285276
 30
0.0
  0
VERTEX
  8
001
 62
               3
  5
D0
 10
328.44711473283928
 20
83.696470271477367
 30
0.0
  0
VERTEX
  8
001
 62
               3
  5
D1
 10
328.31863323321642
 20
83.73549163368925
 30
0.0
  0
SEQEND
  8
001
  5
D2
  0
POLYLINE
  8
001
 62
               3
  5
D3
 66
               1
 10
0.0
 20
0.0
 30
0.0
  0
VERTEX
  8
001
 62
               3
  5
D4
 10
318.65057576032365
 20
83.735491633689236
 30
0.0
  0
VERTEX
  8
001
 62
               3
  5
D5
 10
318.66331097265618
 20
83.735313942493875
 30
0.0
  0
VERTEX
  8
001
 62
               3
  5
D6
 10
318.67604659365048
 20
83.734992621495181
 30
0.0
  0
VERTEX
  8
001
 62
               3
  5
D7
 10
318.80607066947374
 20
83.715914113929685
 30
0.0
  0
VERTEX
  8
001
 62
               3
  5
D8
 10
318.93001214184329
 20
83.670375106882403
 30
0.0
  0
VERTEX
  8
001
 62
               3
  5
D9
 10
319.05388123810434
 20
83.594254464497197
 30
0.0
  0
VERTEX
  8
001
 62
               3
  5
DA
 10
319.16258238378697
 20
83.497608534985105
 30
0.0
  0
VERTEX
  8
001
 62
               3
  5
DB
 10
319.26697320782705
 20
83.372508686288668
 30
0.0
  0
VERTEX
  8
001
 62
               3
  5
DC
 10
319.35550760029258
 20
83.235589426434643
 30
0.0
  0
VERTEX
  8
001
 62
               3
  5
DD
 10
319.4448725475342
 20
83.062779095407038
 30
0.0
  0
VERTEX
  8
001
 62
               3
  5
DE
 10
319.51947168588373
 20
82.883156604989836
 30
0.0
  0
VERTEX
  8
001
 62
               3
  5
DF
 10
319.58577511374108
 20
82.686745807739541
 30
0.0
  0
VERTEX
  8
001
 62
               3
  5
E0
 10
319.64093855449909
 20
82.486892971733809
 30
0.0
  0
VERTEX
  8
001
 62
               3
  5
E1
 10
319.69204196809818
 20
82.260801009197252
 30
0.0
  0
VERTEX
  8
001
 62
               3
  5
E2
 10
319.73342937346791
 20
82.032752167370788
 30
0.0
  0
VERTEX
  8
001
 62
               3
  5
E3
 10
319.76669074214675
 20
81.800137833571156
 30
0.0
  0
VERTEX
  8
001
 62
               3
  5
E4
 10
319.7924057396462
 20
81.566543651344631
 30
0.0
  0
VERTEX
  8
001
 62
               3
  5
E5
 10
319.81224744920718
 20
81.32107760972616
 30
0.0
  0
VERTEX
  8
001
 62
               3
  5
E6
 10
319.82452481121874
 20
81.07516091705773
 30
0.0
  0
VERTEX
  8
001
 62
               3
  5
E7
 10
319.82862157270159
 20
80.90535361180919
 30
0.0
  0
VERTEX
  8
001
 62
               3
  5
E8
 10
319.83077153525011
 20
80.735491633689236
 30
0.0
  0
SEQEND
  8
001
  5
E9
  0
LINE
  8
001
 62
               3
  5
EA
 10
319.83077153525011
 20
80.735491633689236
 30
0.0
 11
319.83077153525011
 21
76.735491633689236
 31
0.0
  0
POLYLINE
  8
001
 62
               3
  5
EB
 66
               1
 10
0.0
 20
0.0
 30
0.0
  0
VERTEX
  8
001
 62
               3
  5
EC
 10
319.83077153525011
 20
76.735491633689236
 30
0.0
  0
VERTEX
  8
001
 62
               3
  5
ED
 10
319.82369674888218
 20
76.422101971771085
 30
0.0
  0
VERTEX
  8
001
 62
               3
  5
EE
 10
319.80929175549755
 20
76.10911243520539
 30
0.0
  0
VERTEX
  8
001
 62
               3
  5
EF
 10
319.7903308604495
 20
75.879303206990343
 30
0.0
  0
VERTEX
  8
001
 62
               3
  5
F0
 10
319.7640479282133
 20
75.650153779218059
 30
0.0
  0
VERTEX
  8
001
 62
               3
  5
F1
 10
319.73282545966384
 20
75.435055992055069
 30
0.0
  0
VERTEX
  8
001
 62
               3
  5
F2
 10
319.694329109541
 20
75.221174295695306
 30
0.0
  0
VERTEX
  8
001
 62
               3
  5
F3
 10
319.65093631855615
 20
75.024170842833868
 30
0.0
  0
VERTEX
  8
001
 62
               3
  5
F4
 10
319.59907158450545
 20
74.829205270386012
 30
0.0
  0
VERTEX
  8
001
 62
               3
  5
F5
 10
319.54447268733895
 20
74.657293271577501
 30
0.0
  0
VERTEX
  8
001
 62
               3
  5
F6
 10
319.48032761711596
 20
74.488745633148483
 30
0.0
  0
VERTEX
  8
001
 62
               3
  5
F7
 10
319.41270346401814
 20
74.340996532887459
 30
0.0
  0
VERTEX
  8
001
 62
               3
  5
F8
 10
319.33386854597615
 20
74.198860834400023
 30
0.0
  0
VERTEX
  8
001
 62
               3
  5
F9
 10
319.25587220975535
 20
74.083450988018484
 30
0.0
  0
VERTEX
  8
001
 62
               3
  5
FA
 10
319.1661425189007
 20
73.97708832077727
 30
0.0
  0
VERTEX
  8
001
 62
               3
  5
FB
 10
319.07281925049739
 20
73.891441982347018
 30
0.0
  0
VERTEX
  8
001
 62
               3
  5
FC
 10
318.96786315037269
 20
73.820213899440162
 30
0.0
  0
VERTEX
  8
001
 62
               3
  5
FD
 10
318.86357424892213
 20
73.771972124318935
 30
0.0
  0
VERTEX
  8
001
 62
               3
  5
FE
 10
318.75290702644583
 20
73.74370756716695
 30
0.0
  0
VERTEX
  8
001
 62
               3
  5
FF
 10
318.70190014164342
 20
73.738336500592268
 30
0.0
  0
VERTEX
  8
001
 62
               3
  5
100
 10
318.65057576032365
 20
73.735491633689236
 30
0.0
  0
SEQEND
  8
001
  5
101
  0
POLYLINE
  8
001
 62
               3
  5
102
 66
               1
 10
0.0
 20
0.0
 30
0.0
  0
VERTEX
  8
001
 62
               3
  5
103
 10
271.53369980276472
 20
73.735491633689236
 30
0.0
  0
VERTEX
  8
001
 62
               3
  5
104
 10
271.52096459043219
 20
73.735669324884597
 30
0.0
  0
VERTEX
  8
001
 62
               3
  5
105
 10
271.50822896943788
 20
73.735990645883291
 30
0.0
  0
VERTEX
  8
001
 62
               3
  5
106
 10
271.37820489361462
 20
73.755069153448787
 30
0.0
  0
VERTEX
  8
001
 62
               3
  5
107
 10
271.25426342124507
 20
73.800608160496068
 30
0.0
  0
VERTEX
  8
001
 62
               3
  5
108
 10
271.13039432498402
 20
73.876728802881274
 30
0.0
  0
VERTEX
  8
001
 62
               3
  5
109
 10
271.02169317930139
 20
73.973374732393367
 30
0.0
  0
VERTEX
  8
001
 62
               3
  5
10A
 10
270.91730235526131
 20
74.098474581089803
 30
0.0
  0
VERTEX
  8
001
 62
               3
  5
10B
 10
270.82876796279578
 20
74.235393840943829
 30
0.0
  0
VERTEX
  8
001
 62
               3
  5
10C
 10
270.73940301555416
 20
74.408204171971434
 30
0.0
  0
VERTEX
  8
001
 62
               3
  5
10D
 10
270.66480387720463
 20
74.587826662388636
 30
0.0
  0
VERTEX
  8
001
 62
               3
  5
10E
 10
270.59850044934728
 20
74.784237459638931
 30
0.0
  0
VERTEX
  8
001
 62
               3
  5
10F
 10
270.54333700858928
 20
74.984090295644663
 30
0.0
  0
VERTEX
  8
001
 62
               3
  5
110
 10
270.49223359499018
 20
75.21018225818122
 30
0.0
  0
VERTEX
  8
001
 62
               3
  5
111
 10
270.45084618962045
 20
75.438231100007684
 30
0.0
  0
VERTEX
  8
001
 62
               3
  5
112
 10
270.41758482094161
 20
75.670845433807315
 30
0.0
  0
VERTEX
  8
001
 62
               3
  5
113
 10
270.39186982344216
 20
75.904439616033841
 30
0.0
  0
VERTEX
  8
001
 62
               3
  5
114
 10
270.37202811388119
 20
76.149905657652312
 30
0.0
  0
VERTEX
  8
001
 62
               3
  5
115
 10
270.35975075186963
 20
76.395822350320756
 30
0.0
  0
VERTEX
  8
001
 62
               3
  5
116
 10
270.35565399038677
 20
76.565629655569282
 30
0.0
  0
VERTEX
  8
001
 62
               3
  5
117
 10
270.35350402783826
 20
76.735491633689236
 30
0.0
  0
SEQEND
  8
001
  5
118
  0
LINE
  8
001
 62
               3
  5
119
 10
270.35350402783826
 20
76.735491633689236
 30
0.0
 11
270.35350402783826
 21
80.735491633689236
 31
0.0
  0
POLYLINE
  8
001
 62
               3
  5
11A
 66
               1
 10
0.0
 20
0.0
 30
0.0
  0
VERTEX
  8
001
 62
               3
  5
11B
 10
270.35350402783826
 20
80.735491633689236
 30
0.0
  0
VERTEX
  8
001
 62
               3
  5
11C
 10
270.36057881420618
 20
81.048881295607387
 30
0.0
  0
VERTEX
  8
001
 62
               3
  5
11D
 10
270.37498380759081
 20
81.361870832173082
 30
0.0
  0
VERTEX
  8
001
 62
               3
  5
11E
 10
270.39394470263886
 20
81.591680060388128
 30
0.0
  0
VERTEX
  8
001
 62
               3
  5
11F
 10
270.42022763487506
 20
81.820829488160399
 30
0.0
  0
VERTEX
  8
001
 62
               3
  5
120
 10
270.45145010342452
 20
82.035927275323402
 30
0.0
  0
VERTEX
  8
001
 62
               3
  5
121
 10
270.48994645354736
 20
82.24980897168318
 30
0.0
  0
VERTEX
  8
001
 62
               3
  5
122
 10
270.53333924453221
 20
82.446812424544603
 30
0.0
  0
VERTEX
  8
001
 62
               3
  5
123
 10
270.58520397858291
 20
82.64177799699246
 30
0.0
  0
VERTEX
  8
001
 62
               3
  5
124
 10
270.63980287574941
 20
82.813689995800971
 30
0.0
  0
VERTEX
  8
001
 62
               3
  5
125
 10
270.7039479459724
 20
82.982237634229989
 30
0.0
  0
VERTEX
  8
001
 62
               3
  5
126
 10
270.77157209907023
 20
83.129986734491027
 30
0.0
  0
VERTEX
  8
001
 62
               3
  5
127
 10
270.85040701711222
 20
83.272122432978449
 30
0.0
  0
VERTEX
  8
001
 62
               3
  5
128
 10
270.92840335333301
 20
83.387532279359988
 30
0.0
  0
VERTEX
  8
001
 62
               3
  5
129
 10
271.01813304418766
 20
83.493894946601188
 30
0.0
  0
VERTEX
  8
001
 62
               3
  5
12A
 10
271.11145631259097
 20
83.579541285031453
 30
0.0
  0
VERTEX
  8
001
 62
               3
  5
12B
 10
271.21641241271567
 20
83.650769367938324
 30
0.0
  0
VERTEX
  8
001
 62
               3
  5
12C
 10
271.32070131416623
 20
83.69901114305955
 30
0.0
  0
VERTEX
  8
001
 62
               3
  5
12D
 10
271.43136853664254
 20
83.727275700211536
 30
0.0
  0
VERTEX
  8
001
 62
               3
  5
12E
 10
271.48237542144494
 20
83.732646766786203
 30
0.0
  0
VERTEX
  8
001
 62
               3
  5
12F
 10
271.53369980276472
 20
83.735491633689236
 30
0.0
  0
SEQEND
  8
001
  5
130
  0
POLYLINE
  8
001
 62
               3
  5
131
 66
               1
 10
0.0
 20
0.0
 30
0.0
  0
VERTEX
  8
001
 62
               3
  5
132
 10
261.86564232987172
 20
83.735491633689236
 30
0.0
  0
VERTEX
  8
001
 62
               3
  5
133
 10
261.78006535128594
 20
83.718642670154466
 30
0.0
  0
VERTEX
  8
001
 62
               3
  5
134
 10
261.69965451935155
 20
83.69068279439432
 30
0.0
  0
VERTEX
  8
001
 62
               3
  5
135
 10
261.61647230300133
 20
83.633208533884755
 30
0.0
  0
VERTEX
  8
001
 62
               3
  5
136
 10
261.5457666122598
 20
83.557502094338091
 30
0.0
  0
VERTEX
  8
001
 62
               3
  5
137
 10
261.47014847672807
 20
83.45018354601298
 30
0.0
  0
VERTEX
  8
001
 62
               3
  5
138
 10
261.40756730051982
 20
83.336084604413642
 30
0.0
  0
VERTEX
  8
001
 62
               3
  5
139
 10
261.34218398711425
 20
83.186726189182679
 30
0.0
  0
VERTEX
  8
001
 62
               3
  5
13A
 10
261.28786372892824
 20
83.032535330323284
 30
0.0
  0
VERTEX
  8
001
 62
               3
  5
13B
 10
261.23549085176296
 20
82.85089155183239
 30
0.0
  0
VERTEX
  8
001
 62
               3
  5
13C
 10
261.19196725813305
 20
82.667071510624922
 30
0.0
  0
VERTEX
  8
001
 62
               3
  5
13D
 10
261.15050682243964
 20
82.45515973578091
 30
0.0
  0
VERTEX
  8
001
 62
               3
  5
13E
 10
261.11647876066303
 20
82.241890530497983
 30
0.0
  0
VERTEX
  8
001
 62
               3
  5
13F
 10
261.08724029560159
 20
82.014456941637732
 30
0.0
  0
VERTEX
  8
001
 62
               3
  5
140
 10
261.06394164533032
 20
81.786334861645969
 30
0.0
  0
VERTEX
  8
001
 62
               3
  5
141
 10
261.04469345528008
 20
81.543220917078386
 30
0.0
  0
VERTEX
  8
001
 62
               3
  5
142
 10
261.03130285132562
 20
81.299743179399044
 30
0.0
  0
VERTEX
  8
001
 62
               3
  5
143
 10
261.02288481568007
 20
81.0176911270012
 30
0.0
  0
VERTEX
  8
001
 62
               3
  5
144
 10
261.01868770674236
 20
80.735491633689236
 30
0.0
  0
SEQEND
  8
001
  5
145
  0
POLYLINE
  8
001
 62
               3
  5
146
 66
               1
 10
0.0
 20
0.0
 30
0.0
  0
VERTEX
  8
001
 62
               3
  5
147
 10
315.21713778154418
 20
112.87383507950588
 30
0.0
  0
VERTEX
  8
001
 62
               3
  5
148
 10
315.25555339760655
 20
112.85889046049527
 30
0.0
  0
VERTEX
  8
001
 62
               3
  5
149
 10
315.29393513467068
 20
112.84385413720636
 30
0.0
  0
VERTEX
  8
001
 62
               3
  5
14A
 10
315.83231751179841
 20
112.60990119901636
 30
0.0
  0
VERTEX
  8
001
 62
               3
  5
14B
 10
316.35260815005341
 20
112.33737296792478
 30
0.0
  0
VERTEX
  8
001
 62
               3
  5
14C
 10
316.85205277521931
 20
112.02359335062403
 30
0.0
  0
VERTEX
  8
001
 62
               3
  5
14D
 10
317.32253794938725
 20
111.6684145225997
 30
0.0
  0
VERTEX
  8
001
 62
               3
  5
14E
 10
317.62635805200796
 20
111.39956445574957
 30
0.0
  0
VERTEX
  8
001
 62
               3
  5
14F
 10
317.91212265909945
 20
111.11161326831953
 30
0.0
  0
VERTEX
  8
001
 62
               3
  5
150
 10
318.18601099360319
 20
110.79639364672261
 30
0.0
  0
VERTEX
  8
001
 62
               3
  5
151
 10
318.43798839059519
 20
110.46336579035039
 30
0.0
  0
VERTEX
  8
001
 62
               3
  5
152
 10
318.67275898687222
 20
110.10390595268298
 30
0.0
  0
VERTEX
  8
001
 62
               3
  5
153
 10
318.8815185450581
 20
109.72878619434027
 30
0.0
  0
VERTEX
  8
001
 62
               3
  5
154
 10
319.06132743245627
 20
109.34417013044825
 30
0.0
  0
VERTEX
  8
001
 62
               3
  5
155
 10
319.21476074484764
 20
108.9482252310377
 30
0.0
  0
VERTEX
  8
001
 62
               3
  5
156
 10
319.34569540930687
 20
108.53017078041592
 30
0.0
  0
VERTEX
  8
001
 62
               3
  5
157
 10
319.44833895054904
 20
108.10434235394027
 30
0.0
  0
VERTEX
  8
001
 62
               3
  5
158
 10
319.52396039048438
 20
107.66010644812808
 30
0.0
  0
VERTEX
  8
001
 62
               3
  5
159
 10
319.56984852260695
 20
107.21173838276772
 30
0.0
  0
VERTEX
  8
001
 62
               3
  5
15A
 10
319.58667870503399
 20
106.7575809731749
 30
0.0
  0
VERTEX
  8
001
 62
               3
  5
15B
 10
319.57340340708998
 20
106.30339297614503
 30
0.0
  0
VERTEX
  8
001
 62
               3
  5
15C
 10
319.5345485553467
 20
105.89094749251991
 30
0.0
  0
VERTEX
  8
001
 62
               3
  5
15D
 10
319.47053084468877
 20
105.48161808358901
 30
0.0
  0
VERTEX
  8
001
 62
               3
  5
15E
 10
319.38362749614964
 20
105.08455403460289
 30
0.0
  0
VERTEX
  8
001
 62
               3
  5
15F
 10
319.27242960879022
 20
104.69363961297071
 30
0.0
  0
VERTEX
  8
001
 62
               3
  5
160
 10
319.13716345389338
 20
104.31220470507731
 30
0.0
  0
VERTEX
  8
001
 62
               3
  5
161
 10
318.97783999089398
 20
103.94016401684095
 30
0.0
  0
VERTEX
  8
001
 62
               3
  5
162
 10
318.80116042363699
 20
103.59040630745095
 30
0.0
  0
VERTEX
  8
001
 62
               3
  5
163
 10
318.60254385675336
 20
103.25257223767653
 30
0.0
  0
VERTEX
  8
001
 62
               3
  5
164
 10
318.28877225249823
 20
102.80330929615235
 30
0.0
  0
VERTEX
  8
001
 62
               3
  5
165
 10
317.93567149043025
 20
102.38417321675027
 30
0.0
  0
VERTEX
  8
001
 62
               3
  5
166
 10
317.55986499315128
 20
102.01010988751793
 30
0.0
  0
VERTEX
  8
001
 62
               3
  5
167
 10
317.15444431866177
 20
101.6680239607503
 30
0.0
  0
VERTEX
  8
001
 62
               3
  5
168
 10
316.70178305406603
 20
101.34483115298174
 30
0.0
  0
VERTEX
  8
001
 62
               3
  5
169
 10
316.22389270670266
 20
101.06147277330359
 30
0.0
  0
VERTEX
  8
001
 62
               3
  5
16A
 10
315.72606098591694
 20
100.81830946383901
 30
0.0
  0
VERTEX
  8
001
 62
               3
  5
16B
 10
315.21713778154418
 20
100.59714818787259
 30
0.0
  0
SEQEND
  8
001
  5
16C
  0
LINE
  8
001
 62
               3
  5
16D
 10
52.180207290787678
 20
248.73549163368912
 30
0.0
 11
170.18020729078768
 21
248.73549163368912
 31
0.0
  0
LINE
  8
001
  6
CENTER
  5
16E
 10
218.18020729078768
 20
213.73549163368912
 30
0.0
 11
45.180207290787791
 21
213.73549163368912
 31
0.0
  0
LINE
  8
001
 62
               3
  5
16F
 10
199.20974015580697
 20
105.02049163368926
 30
0.0
 11
199.20974015580697
 21
108.45049163368927
 31
0.0
  0
LINE
  8
001
 62
               3
  5
170
 10
205.15067442576839
 20
108.45049163368927
 30
0.0
 11
205.15067442576839
 21
105.02049163368926
 31
0.0
  0
LINE
  8
001
 62
               3
  5
171
 10
205.15067442576839
 20
105.02049163368926
 30
0.0
 11
202.18020729078776
 21
103.30549163368926
 31
0.0
  0
LINE
  8
001
 62
               3
  5
172
 10
202.18020729078768
 20
110.16549163368924
 30
0.0
 11
199.20974015580705
 21
108.45049163368924
 31
0.0
  0
LINE
  8
001
 62
               3
  5
173
 10
202.18020729078768
 20
110.16549163368924
 30
0.0
 11
205.1506744257683
 21
108.45049163368924
 31
0.0
  0
LINE
  8
001
 62
               3
  5
174
 10
202.18020729078768
 20
103.30549163368926
 30
0.0
 11
199.20974015580705
 21
105.02049163368926
 31
0.0
  0
CIRCLE
  8
001
 62
               3
  5
175
 10
202.18020729078768
 20
106.73549163368924
 30
0.0
 40
6.5
  0
CIRCLE
  8
001
 62
               3
  5
176
 10
202.18020729078768
 20
106.73549163368924
 30
0.0
 40
3.4299999999999988
  0
LINE
  8
001
 62
               3
  5
177
 10
199.20974015580697
 20
90.020491633689261
 30
0.0
 11
199.20974015580697
 21
93.450491633689268
 31
0.0
  0
LINE
  8
001
 62
               3
  5
178
 10
205.15067442576839
 20
93.450491633689268
 30
0.0
 11
205.15067442576839
 21
90.020491633689261
 31
0.0
  0
LINE
  8
001
 62
               3
  5
179
 10
205.15067442576839
 20
90.020491633689261
 30
0.0
 11
202.18020729078776
 21
88.305491633689257
 31
0.0
  0
LINE
  8
001
 62
               3
  5
17A
 10
202.18020729078768
 20
95.165491633689243
 30
0.0
 11
199.20974015580705
 21
93.450491633689239
 31
0.0
  0
LINE
  8
001
 62
               3
  5
17B
 10
202.18020729078768
 20
95.165491633689243
 30
0.0
 11
205.1506744257683
 21
93.450491633689239
 31
0.0
  0
LINE
  8
001
 62
               3
  5
17C
 10
202.18020729078768
 20
88.305491633689257
 30
0.0
 11
199.20974015580705
 21
90.020491633689261
 31
0.0
  0
CIRCLE
  8
001
 62
               3
  5
17D
 10
202.18020729078768
 20
91.735491633689236
 30
0.0
 40
6.5
  0
CIRCLE
  8
001
 62
               3
  5
17E
 10
202.18020729078768
 20
91.735491633689236
 30
0.0
 40
3.4299999999999988
  0
LINE
  8
001
 62
               3
  5
17F
 10
84.209740155806969
 20
55.020491633689261
 30
0.0
 11
84.209740155806969
 21
58.450491633689261
 31
0.0
  0
LINE
  8
001
 62
               3
  5
180
 10
90.150674425768386
 20
58.450491633689268
 30
0.0
 11
90.150674425768386
 21
55.020491633689268
 31
0.0
  0
LINE
  8
001
 62
               3
  5
181
 10
90.150674425768386
 20
55.020491633689261
 30
0.0
 11
87.180207290787763
 21
53.305491633689265
 31
0.0
  0
LINE
  8
001
 62
               3
  5
182
 10
87.180207290787678
 20
60.165491633689243
 30
0.0
 11
84.209740155807054
 21
58.450491633689246
 31
0.0
  0
LINE
  8
001
 62
               3
  5
183
 10
87.180207290787678
 20
60.165491633689243
 30
0.0
 11
90.150674425768301
 21
58.450491633689239
 31
0.0
  0
LINE
  8
001
 62
               3
  5
184
 10
87.180207290787678
 20
53.305491633689257
 30
0.0
 11
84.209740155807054
 21
55.020491633689254
 31
0.0
  0
CIRCLE
  8
001
 62
               3
  5
185
 10
87.180207290787678
 20
56.735491633689236
 30
0.0
 40
6.5
  0
CIRCLE
  8
001
 62
               3
  5
186
 10
87.180207290787678
 20
56.735491633689236
 30
0.0
 40
3.4299999999999988
  0
LINE
  8
001
 62
               3
  5
187
 10
69.209740155806969
 20
55.020491633689261
 30
0.0
 11
69.209740155806969
 21
58.450491633689261
 31
0.0
  0
LINE
  8
001
 62
               3
  5
188
 10
75.150674425768386
 20
58.450491633689268
 30
0.0
 11
75.150674425768386
 21
55.020491633689268
 31
0.0
  0
LINE
  8
001
 62
               3
  5
189
 10
75.150674425768386
 20
55.020491633689261
 30
0.0
 11
72.180207290787763
 21
53.305491633689265
 31
0.0
  0
LINE
  8
001
 62
               3
  5
18A
 10
72.180207290787678
 20
60.165491633689243
 30
0.0
 11
69.209740155807054
 21
58.450491633689246
 31
0.0
  0
LINE
  8
001
 62
               3
  5
18B
 10
72.180207290787678
 20
60.165491633689243
 30
0.0
 11
75.150674425768301
 21
58.450491633689239
 31
0.0
  0
LINE
  8
001
 62
               3
  5
18C
 10
72.180207290787678
 20
53.305491633689257
 30
0.0
 11
69.209740155807054
 21
55.020491633689254
 31
0.0
  0
CIRCLE
  8
001
 62
               3
  5
18D
 10
72.180207290787678
 20
56.735491633689236
 30
0.0
 40
6.5
  0
CIRCLE
  8
001
 62
               3
  5
18E
 10
72.180207290787678
 20
56.735491633689236
 30
0.0
 40
3.4299999999999988
  0
LINE
  8
001
 62
               3
  5
18F
 10
271.79213778154423
 20
100.23549163368912
 30
0.0
 11
265.39213778154431
 21
100.23549163368924
 31
0.0
  0
LINE
  8
001
 62
               3
  5
190
 10
271.79213778154423
 20
113.23549163368912
 30
0.0
 11
265.39213778154431
 21
113.23549163368901
 31
0.0
  0
LINE
  8
001
 62
               3
  5
191
 10
264.59213778154418
 20
112.43549163368917
 30
0.0
 11
264.59213778154418
 21
101.03549163368908
 31
0.0
  0
ARC
  8
001
 62
               3
  5
192
 10
265.39213778154436
 20
101.03549163368908
 30
0.0
 40
0.8
 50
180.0
 51
270.0
  0
ARC
  8
001
 62
               3
  5
193
 10
265.39213778154436
 20
112.43549163368917
 30
0.0
 40
0.8
 50
90.0
 51
180.0
  0
LINE
  8
001
 62
               3
  5
194
 10
266.29213778154423
 20
98.235491633689122
 30
0.0
 11
259.89213778154431
 21
98.235491633689008
 31
0.0
  0
LINE
  8
001
 62
               3
  5
195
 10
266.29213778154423
 20
85.235491633689122
 30
0.0
 11
259.89213778154431
 21
85.235491633689236
 31
0.0
  0
LINE
  8
001
 62
               3
  5
196
 10
259.09213778154418
 20
86.035491633689077
 30
0.0
 11
259.09213778154418
 21
97.435491633689168
 31
0.0
  0
LINE
  8
001
 62
               3
  5
197
 10
267.09213778154418
 20
86.035491633689304
 30
0.0
 11
267.09213778154418
 21
97.435491633689168
 31
0.0
  0
LINE
  8
001
 62
               3
  5
198
 10
297.09213778154418
 20
94.485491633689122
 30
0.0
 11
297.09213778154418
 21
88.985491633688895
 31
0.0
  0
LINE
  8
001
 62
               3
  5
199
 10
295.84213778154418
 20
87.735491633689122
 30
0.0
 11
297.09213778154418
 21
88.985491633689008
 31
0.0
  0
LINE
  8
001
 62
               3
  5
19A
 10
297.09213778154418
 20
94.485491633689122
 30
0.0
 11
295.84213778154418
 21
95.735491633689008
 31
0.0
  0
LINE
  8
001
 62
               3
  5
19B
 10
295.84213778154418
 20
87.735491633689122
 30
0.0
 11
295.84213778154418
 21
95.735491633689122
 31
0.0
  0
ARC
  8
001
 62
               3
  5
19C
 10
259.89213778154436
 20
97.435491633689168
 30
0.0
 40
0.8
 50
90.0
 51
180.0
  0
ARC
  8
001
 62
               3
  5
19D
 10
259.89213778154436
 20
86.035491633689077
 30
0.0
 40
0.8
 50
180.0
 51
270.0
  0
ARC
  8
001
 62
               3
  5
19E
 10
266.29213778154423
 20
86.035491633689304
 30
0.0
 40
0.8
 50
270.0
 51
0.0
  0
ARC
  8
001
 62
               3
  5
19F
 10
266.29213778154423
 20
97.435491633689168
 30
0.0
 40
0.8
 50
0.0
 51
90.0
  0
LINE
  8
001
 62
               3
  5
1A0
 10
208.68020729078791
 20
190.43549163368917
 30
0.0
 11
208.68020729078779
 21
184.03549163368925
 31
0.0
  0
LINE
  8
001
 62
               3
  5
1A1
 10
196.48020729078763
 20
183.23549163368912
 30
0.0
 11
207.88020729078772
 21
183.23549163368912
 31
0.0
  0
ARC
  8
001
 62
               3
  5
1A2
 10
207.88020729078772
 20
184.0354916336893
 30
0.0
 40
0.8
 50
270.0
 51
0.0
  0
ARC
  8
001
 62
               3
  5
1A3
 10
196.48020729078763
 20
184.0354916336893
 30
0.0
 40
0.8
 50
180.0
 51
270.0
  0
LINE
  8
001
 62
               3
  5
1A4
 10
196.48020729078763
 20
177.73549163368912
 30
0.0
 11
207.88020729078772
 21
177.73549163368912
 31
0.0
  0
ARC
  8
001
 62
               3
  5
1A5
 10
207.88020729078772
 20
178.5354916336893
 30
0.0
 40
0.8
 50
270.0
 51
0.0
  0
ARC
  8
001
 62
               3
  5
1A6
 10
196.48020729078763
 20
178.5354916336893
 30
0.0
 40
0.8
 50
180.0
 51
270.0
  0
LINE
  8
001
 62
               3
  5
1A7
 10
208.68020729078791
 20
183.23549163368912
 30
0.0
 11
208.68020729078782
 21
178.53549163368925
 31
0.0
  0
LINE
  8
001
 62
               3
  5
1A8
 10
195.68020729078791
 20
183.23549163368912
 30
0.0
 11
195.68020729078799
 21
178.53549163368925
 31
0.0
  0
LINE
  8
001
 62
               3
  5
1A9
 10
196.56201920733366
 20
83.735491633689236
 30
0.0
 11
196.56201920733366
 21
88.466552561308816
 31
0.0
  0
LINE
  8
001
 62
               3
  5
1AA
 10
196.56201920733366
 20
95.004430706069655
 30
0.0
 11
196.56201920733366
 21
102.55985244202847
 31
0.0
  0
LINE
  8
001
 62
               3
  5
1AB
 10
95.180207290787678
 20
62.353679717143365
 30
0.0
 11
90.449146363167927
 21
62.353679717143365
 31
0.0
  0
LINE
  8
001
 62
               3
  5
1AC
 10
83.911268218407429
 20
62.353679717143365
 30
0.0
 11
76.355846482448442
 21
62.353679717143365
 31
0.0
  0
LINE
  8
001
 62
               3
  5
1AD
 10
297.09213778154418
 20
102.73549163368912
 30
0.0
 11
293.09213778154418
 21
102.73549163368912
 31
0.0
  0
LINE
  8
001
 62
               3
  5
1AE
 10
297.09213778154418
 20
103.41199163368915
 30
0.0
 11
293.09213778154418
 21
103.41199163368915
 31
0.0
  0
LINE
  8
001
 62
               3
  5
1AF
 10
297.09213778154418
 20
110.05899163368909
 30
0.0
 11
293.09213778154418
 21
110.05899163368909
 31
0.0
  0
LINE
  8
001
 62
               3
  5
1B0
 10
297.09213778154418
 20
110.73549163368912
 30
0.0
 11
293.09213778154418
 21
110.73549163368912
 31
0.0
  0
ARC
  8
001
 62
               3
  5
1B1
 10
271.79213778154423
 20
112.43549163368894
 30
0.0
 40
0.8
 50
67.975687162961108
 51
90.000000000000014
  0
ARC
  8
001
 62
               3
  5
1B2
 10
271.79213778154423
 20
101.03549163368908
 30
0.0
 40
0.8
 50
270.0
 51
292.02431283703891
  0
LINE
  8
001
 62
               3
  5
1B3
 10
296.51863778154421
 20
95.058991633689089
 30
0.0
 11
293.09213778154418
 21
95.058991633689089
 31
0.0
  0
LINE
  8
001
 62
               3
  5
1B4
 10
295.84213778154418
 20
95.735491633689122
 30
0.0
 11
293.09213778154418
 21
95.735491633689122
 31
0.0
  0
LINE
  8
001
 62
               3
  5
1B5
 10
272.09213778154418
 20
95.735491633689122
 30
0.0
 11
267.09213778154424
 21
95.735491633689122
 31
0.0
  0
LINE
  8
001
 62
               3
  5
1B6
 10
295.84213778154418
 20
87.735491633689122
 30
0.0
 11
293.09213778154418
 21
87.735491633689122
 31
0.0
  0
LINE
  8
001
 62
               3
  5
1B7
 10
272.09213778154418
 20
87.735491633689122
 30
0.0
 11
267.09213778154424
 21
87.735491633689122
 31
0.0
  0
LINE
  8
001
 62
               3
  5
1B8
 10
296.51863778154421
 20
88.411991633689155
 30
0.0
 11
293.09213778154418
 21
88.411991633689155
 31
0.0
  0
LINE
  8
001
 62
               3
  5
1B9
 10
260.09213778154418
 20
50.735491633689207
 30
0.0
 11
260.09213778154418
 21
85.235491633689236
 31
0.0
  0
LINE
  8
001
 62
               3
  5
1BA
 10
260.09213778154418
 20
98.235491633689008
 30
0.0
 11
260.09213778154418
 21
126.73549163368915
 31
0.0
  0
ARC
  8
001
 62
               3
  5
1BB
 10
207.88020729078772
 20
190.43549163368917
 30
0.0
 40
0.8
 50
0.0
 51
22.024312837036607
  0
LINE
  8
001
 62
               3
  5
1BC
 10
195.68020729078791
 20
189.68535231765546
 30
0.0
 11
195.68020729078802
 21
184.03549163368925
 31
0.0
  0
LINE
  8
001
 62
               3
  5
1BD
 10
198.85670729078794
 20
215.73549163368912
 30
0.0
 11
198.85670729078794
 21
211.73549163368912
 31
0.0
  0
LINE
  8
001
 62
               3
  5
1BE
 10
198.18020729078791
 20
215.73549163368912
 30
0.0
 11
198.18020729078791
 21
211.73549163368912
 31
0.0
  0
LINE
  8
001
 62
               3
  5
1BF
 10
206.18020729078791
 20
215.73549163368912
 30
0.0
 11
206.18020729078791
 21
211.73549163368912
 31
0.0
  0
LINE
  8
001
 62
               3
  5
1C0
 10
205.50370729078787
 20
215.73549163368912
 30
0.0
 11
205.50370729078787
 21
211.73549163368912
 31
0.0
  0
ARC
  8
001
 62
               3
  5
1C1
 10
170.18020729078768
 20
213.73549163368912
 30
0.0
 40
35.0
 50
3.2758289597983947
 51
153.42503048101301
  0
ARC
  8
001
 62
               3
  5
1C2
 10
170.18020729078768
 20
213.73549163368912
 30
0.0
 40
35.0
 50
206.57496951898707
 51
356.72417104020155
  0
LINE
  8
001
 62
               3
  5
1C3
 10
272.09213778154418
 20
95.058991633689089
 30
0.0
 11
267.09213778154418
 21
95.058991633689089
 31
0.0
  0
LINE
  8
001
 62
               3
  5
1C4
 10
272.09213778154418
 20
88.411991633689155
 30
0.0
 11
267.09213778154418
 21
88.411991633689155
 31
0.0
  0
CIRCLE
  8
001
 62
               3
  5
1C5
 10
170.18020729078768
 20
213.73549163368912
 30
0.0
 40
26.0
  0
TEXT
  8
001
  5
1C6
 10
368.78892568276348
 20
53.567280138944071
 30
0.0
 40
15.0
  1
2006.1.31
 41
0.6750000675000067
  0
TEXT
  8
001
  5
1C7
 10
368.78892568276348
 20
36.067280138944071
 30
0.0
 40
15.0
  1
FS-52CS
 41
0.5
  0
ENDSEC
  0
EOF
