  0
SECTION
  2
HEADER
  9
$ACADVER
  1
AC1009
  9
$DWGCODEPAGE
  3
dos932
  9
$INSBASE
 10
0.0
 20
0.0
 30
0.0
  9
$EXTMIN
 10
48.797332763671875
 20
39.468597412109375
 30
1.0000000000000000E+20
  9
$EXTMAX
 10
372.79733276367188
 20
357.58651733398437
 30
-1.0000000000000000E+20
  9
$LIMMIN
 10
0.0
 20
0.0
  9
$LIMMAX
 10
12.0
 20
9.0
  9
$ORTHOMODE
 70
               0
  9
$REGENMODE
 70
               1
  9
$FILLMODE
 70
               1
  9
$QTEXTMODE
 70
               0
  9
$MIRRTEXT
 70
               1
  9
$DRAGMODE
 70
               2
  9
$LTSCALE
 40
5.4000000000000004
  9
$OSMODE
 70
               0
  9
$ATTMODE
 70
               1
  9
$TEXTSIZE
 40
3.2000000000000002
  9
$TRACEWID
 40
0.05
  9
$TEXTSTYLE
  7
STANDARD
  9
$CLAYER
  8
0
  9
$CELTYPE
  6
CONTINUOUS
  9
$CECOLOR
 62
             256
  9
$DIMSCALE
 40
1.0
  9
$DIMASZ
 40
0.18
  9
$DIMEXO
 40
0.0625
  9
$DIMDLI
 40
0.38
  9
$DIMRND
 40
0.0
  9
$DIMDLE
 40
0.0
  9
$DIMEXE
 40
0.18
  9
$DIMTP
 40
0.0
  9
$DIMTM
 40
0.0
  9
$DIMTXT
 40
0.18
  9
$DIMCEN
 40
0.09
  9
$DIMTSZ
 40
0.0
  9
$DIMTOL
 70
               0
  9
$DIMLIM
 70
               0
  9
$DIMTIH
 70
               1
  9
$DIMTOH
 70
               1
  9
$DIMSE1
 70
               0
  9
$DIMSE2
 70
               0
  9
$DIMTAD
 70
               0
  9
$DIMZIN
 70
               0
  9
$DIMBLK
  1

  9
$DIMASO
 70
               1
  9
$DIMSHO
 70
               1
  9
$DIMPOST
  1

  9
$DIMAPOST
  1

  9
$DIMALT
 70
               0
  9
$DIMALTD
 70
               2
  9
$DIMALTF
 40
25.399999999999999
  9
$DIMLFAC
 40
1.0
  9
$DIMTOFL
 70
               0
  9
$DIMTVP
 40
0.0
  9
$DIMTIX
 70
               0
  9
$DIMSOXD
 70
               0
  9
$DIMSAH
 70
               0
  9
$DIMBLK1
  1

  9
$DIMBLK2
  1

  9
$DIMSTYLE
  2
STANDARD
  9
$DIMCLRD
 70
               0
  9
$DIMCLRE
 70
               0
  9
$DIMCLRT
 70
               0
  9
$DIMTFAC
 40
1.0
  9
$DIMGAP
 40
0.09
  9
$LUNITS
 70
               2
  9
$LUPREC
 70
               4
  9
$AXISMODE
 70
               0
  9
$AXISUNIT
 10
0.0
 20
0.0
  9
$SKETCHINC
 40
0.1
  9
$FILLETRAD
 40
0.0
  9
$AUNITS
 70
               0
  9
$AUPREC
 70
               0
  9
$MENU
  1
acad
  9
$ELEVATION
 40
0.0
  9
$PELEVATION
 40
0.0
  9
$THICKNESS
 40
0.0
  9
$LIMCHECK
 70
               0
  9
$BLIPMODE
 70
               1
  9
$CHAMFERA
 40
0.0
  9
$CHAMFERB
 40
0.0
  9
$SKPOLY
 70
               0
  9
$TDCREATE
 40
0.000000000
  9
$TDUPDATE
 40
0.000000000
  9
$TDINDWG
 40
0.0000000000
  9
$TDUSRTIMER
 40
0.0000000000
  9
$USRTIMER
 70
               1
  9
$ANGBASE
 50
0.0
  9
$ANGDIR
 70
               0
  9
$PDMODE
 70
               0
  9
$PDSIZE
 40
0.0
  9
$PLINEWID
 40
0.0
  9
$COORDS
 70
               1
  9
$SPLFRAME
 70
               0
  9
$SPLINETYPE
 70
               6
  9
$SPLINESEGS
 70
               8
  9
$ATTDIA
 70
               0
  9
$ATTREQ
 70
               1
  9
$HANDLING
 70
               1
  9
$HANDSEED
  5
195
  9
$SURFTAB1
 70
               6
  9
$SURFTAB2
 70
               6
  9
$SURFTYPE
 70
               6
  9
$SURFU
 70
               6
  9
$SURFV
 70
               6
  9
$UCSNAME
  2

  9
$UCSORG
 10
0.0
 20
0.0
 30
0.0
  9
$UCSXDIR
 10
1.0
 20
0.0
 30
0.0
  9
$UCSYDIR
 10
0.0
 20
1.0
 30
0.0
  9
$PUCSNAME
  2

  9
$PUCSORG
 10
0.0
 20
0.0
 30
0.0
  9
$PUCSXDIR
 10
1.0
 20
0.0
 30
0.0
  9
$PUCSYDIR
 10
0.0
 20
1.0
 30
0.0
  9
$USERI1
 70
               0
  9
$USERI2
 70
               0
  9
$USERI3
 70
               0
  9
$USERI4
 70
               0
  9
$USERI5
 70
               0
  9
$USERR1
 40
0.0
  9
$USERR2
 40
0.0
  9
$USERR3
 40
0.0
  9
$USERR4
 40
0.0
  9
$USERR5
 40
0.0
  9
$WORLDVIEW
 70
               1
  9
$SHADEDGE
 70
               3
  9
$SHADEDIF
 70
              70
  9
$TILEMODE
 70
               1
  9
$MAXACTVP
 70
              16
  9
$PINSBASE
 10
0.0
 20
0.0
 30
0.0
  9
$PLIMCHECK
 70
               0
  9
$PEXTMIN
 10
1.0000000000000000E+20
 20
1.0000000000000000E+20
 30
1.0000000000000000E+20
  9
$PEXTMAX
 10
-1.0000000000000000E+20
 20
-1.0000000000000000E+20
 30
-1.0000000000000000E+20
  9
$PLIMMIN
 10
0.0
 20
0.0
  9
$PLIMMAX
 10
12.0
 20
9.0
  9
$UNITMODE
 70
               0
  9
$VISRETAIN
 70
               0
  9
$PLINEGEN
 70
               0
  9
$PSLTSCALE
 70
               1
  9
$TREEDEPTH
 70
            3020
  0
ENDSEC
  0
SECTION
  2
TABLES
  0
TABLE
  2
VPORT
 70
               1
  0
VPORT
  2
*ACTIVE
 70
               0
 10
0.0
 20
0.0
 11
1.0
 21
1.0
 12
210.79733276367187
 22
198.52755737304688
 13
0.0
 23
0.0
 14
1.0
 24
1.0
 15
0.0
 25
0.0
 16
0.0
 26
0.0
 36
1.0
 17
0.0
 27
0.0
 37
0.0
 40
321.29909912109378
 41
1.6912879999999999
 42
50.0
 43
0.0
 44
0.0
 50
0.0
 51
0.0
 71
               0
 72
             100
 73
               1
 74
               1
 75
               0
 76
               0
 77
               0
 78
               0
  0
ENDTAB
  0
TABLE
  2
LTYPE
 70
               5
  0
LTYPE
  2
CONTINUOUS
 70
              64
  3
Solid line
 72
              65
 73
               0
 40
0.0
  0
LTYPE
  2
DASHED
 70
              64
  3
DASHED
 72
              65
 73
               2
 40
0.75
 49
0.5
 49
-0.25
  0
LTYPE
  2
HIDDEN
 70
              64
  3
HIDDEN
 72
              65
 73
               2
 40
0.375
 49
0.25
 49
-0.125
  0
LTYPE
  2
CENTER
 70
              64
  3
CENTER
 72
              65
 73
               4
 40
2.0
 49
1.25
 49
-0.25
 49
0.25
 49
-0.25
  0
LTYPE
  2
PHANTOM
 70
              64
  3
PHANTOM
 72
              65
 73
               6
 40
2.5
 49
1.25
 49
-0.25
 49
0.25
 49
-0.25
 49
0.25
 49
-0.25
  0
ENDTAB
  0
TABLE
  2
LAYER
 70
               2
  0
LAYER
  2
0
 70
               0
 62
               7
  6
CONTINUOUS
  0
LAYER
  2
001
 70
               0
 62
               7
  6
CONTINUOUS
  0
ENDTAB
  0
TABLE
  2
STYLE
 70
               2
  0
STYLE
  2
STANDARD
 70
               0
 40
0.0
 41
1.0
 50
0.0
 71
               0
 42
0.2
  3
TXT
  4
BIGFONT
  0
STYLE
  2
TATEGAKI
 70
               4
 40
1.0
 41
1.0
 50
0.0
 71
               0
 42
0.2
  3
TXT
  4
BIGFONT
  0
ENDTAB
  0
TABLE
  2
VIEW
 70
               0
  0
ENDTAB
  0
TABLE
  2
UCS
 70
               0
  0
ENDTAB
  0
TABLE
  2
APPID
 70
               1
  0
APPID
  2
ACAD
 70
               0
  0
ENDTAB
  0
TABLE
  2
DIMSTYLE
 70
               1
  0
DIMSTYLE
  2
STANDARD
 70
               0
  3

  4

  5

  6

  7

 40
1.0
 41
0.18
 42
0.0625
 43
0.38
 44
0.18
 45
0.0
 46
0.0
 47
0.0
 48
0.0
 71
               0
 72
               0
 73
               1
 74
               1
 75
               0
 76
               0
 77
               0
 78
               0
140
0.18
141
0.09
142
0.0
143
25.399999999999999
144
1.0
145
0.0
146
1.0
147
0.09
170
               0
171
               2
172
               0
173
               0
174
               0
175
               0
176
               0
177
               0
178
               0
  0
ENDTAB
  0
ENDSEC
  0
SECTION
  2
BLOCKS
  0
ENDSEC
  0
SECTION
  2
ENTITIES
  0
LINE
  8
001
 62
               3
  5
23
 10
75.797332812437958
 20
204.58650520026367
 30
0.0
 11
90.797332812437958
 21
204.58650520026367
 31
0.0
  0
LINE
  8
001
 62
               3
  5
24
 10
367.79733281243841
 20
130.5865052002633
 30
0.0
 11
367.79733281243841
 21
200.58650520026342
 31
0.0
  0
LINE
  8
001
 62
               3
  5
25
 10
277.79733281243841
 20
201.58650520026345
 30
0.0
 11
280.79733281243841
 21
201.58650520026345
 31
0.0
  0
LINE
  8
001
 62
               3
  5
26
 10
365.79733281243841
 20
202.58650520026345
 30
0.0
 11
367.79733281243841
 21
200.58650520026345
 31
0.0
  0
LINE
  8
001
 62
               3
  5
27
 10
277.79733281243841
 20
129.5865052002633
 30
0.0
 11
280.79733281243841
 21
129.5865052002633
 31
0.0
  0
LINE
  8
001
 62
               3
  5
28
 10
367.79733281243841
 20
130.5865052002633
 30
0.0
 11
365.79733281243841
 21
128.5865052002633
 31
0.0
  0
ARC
  8
001
 62
               3
  5
29
 10
274.79733281243841
 20
264.58650520026345
 30
0.0
 40
3.0
 50
270.0
 51
0.0
  0
LINE
  8
001
 62
               3
  5
2A
 10
280.79733281243841
 20
268.58650520026333
 30
0.0
 11
280.79733281243841
 21
342.58650520026345
 31
0.0
  0
LINE
  8
001
 62
               3
  5
2B
 10
367.79733281243841
 20
270.58650520026333
 30
0.0
 11
367.79733281243841
 21
340.58650520026345
 31
0.0
  0
LINE
  8
001
 62
               3
  5
2C
 10
277.79733281243841
 20
341.58650520026339
 30
0.0
 11
280.79733281243841
 21
341.58650520026339
 31
0.0
  0
LINE
  8
001
 62
               3
  5
2D
 10
365.79733281243841
 20
342.58650520026339
 30
0.0
 11
367.79733281243841
 21
340.58650520026339
 31
0.0
  0
LINE
  8
001
 62
               3
  5
2E
 10
277.79733281243841
 20
269.58650520026333
 30
0.0
 11
280.79733281243841
 21
269.58650520026333
 31
0.0
  0
LINE
  8
001
 62
               3
  5
2F
 10
367.79733281243841
 20
270.58650520026333
 30
0.0
 11
365.79733281243841
 21
268.58650520026333
 31
0.0
  0
LINE
  8
001
  6
CENTER
  5
30
 10
237.79733281243807
 20
253.58650520026333
 30
0.0
 11
237.79733281243807
 21
357.58650520026345
 31
0.0
  0
LINE
  8
001
 62
               3
  5
31
 10
117.7973328124383
 20
173.58650520026376
 30
0.0
 11
117.7973328124383
 21
201.58650520026364
 31
0.0
  0
ARC
  8
001
 62
               3
  5
32
 10
75.797332812437958
 20
201.58650520026367
 30
0.0
 40
2.9999999999999964
 50
90.0
 51
180.0
  0
ARC
  8
001
 62
               3
  5
33
 10
114.79733281243819
 20
201.58650520026367
 30
0.0
 40
2.9999999999999964
 50
0.0
 51
90.0
  0
LINE
  8
001
 62
               3
  5
34
 10
72.797332812437958
 20
201.58650520026367
 30
0.0
 11
72.797332812437958
 21
173.58650520026379
 31
0.0
  0
ARC
  8
001
 62
               3
  5
35
 10
75.797332812437958
 20
173.58650520026376
 30
0.0
 40
3.0
 50
180.0
 51
270.0
  0
ARC
  8
001
 62
               3
  5
36
 10
114.79733281243819
 20
173.58650520026376
 30
0.0
 40
3.0
 50
270.0
 51
0.0
  0
LINE
  8
001
 62
               3
  5
37
 10
94.797332812437958
 20
204.58650520026367
 30
0.0
 11
115.29733281243819
 21
204.58650520026367
 31
0.0
  0
LINE
  8
001
 62
               3
  5
38
 10
365.79733281243841
 20
268.58650520026333
 30
0.0
 11
280.79733281243841
 21
268.58650520026333
 31
0.0
  0
LINE
  8
001
 62
               3
  5
39
 10
365.79733281243841
 20
202.58650520026345
 30
0.0
 11
280.79733281243841
 21
202.58650520026345
 31
0.0
  0
LINE
  8
001
 62
               3
  5
3A
 10
365.79733281243841
 20
128.5865052002633
 30
0.0
 11
280.79733281243841
 21
128.5865052002633
 31
0.0
  0
CIRCLE
  8
001
 62
               3
  5
3B
 10
237.79733281243807
 20
305.58650520026339
 30
0.0
 40
34.0
  0
LINE
  8
001
 62
               3
  5
3C
 10
274.79733281243841
 20
349.58650520026339
 30
0.0
 11
237.79733281243807
 21
349.58650520026339
 31
0.0
  0
LINE
  8
001
 62
               3
  5
3D
 10
274.79733281243841
 20
261.58650520026345
 30
0.0
 11
237.79733281243807
 21
261.58650520026345
 31
0.0
  0
LINE
  8
001
  6
CENTER
  5
3E
 10
237.79733281243807
 20
110.58650520026342
 30
0.0
 11
237.79733281243807
 21
220.58650520026342
 31
0.0
  0
LINE
  8
001
 62
               3
  5
3F
 10
184.79733281243819
 20
307.58650520026339
 30
0.0
 11
184.79733281243819
 21
322.58650520026339
 31
0.0
  0
LINE
  8
001
 62
               3
  5
40
 10
199.05459155681717
 20
280.58650520026333
 30
0.0
 11
187.79733281243824
 21
280.58650520026333
 31
0.0
  0
ARC
  8
001
 62
               3
  5
41
 10
187.79733281243819
 20
322.58650520026339
 30
0.0
 40
3.0
 50
90.0
 51
180.0
  0
ARC
  8
001
 62
               3
  5
42
 10
187.79733281243819
 20
283.58650520026333
 30
0.0
 40
3.0
 50
180.0
 51
270.0
  0
LINE
  8
001
 62
               3
  5
43
 10
184.79733281243819
 20
303.58650520026339
 30
0.0
 11
184.79733281243819
 21
283.58650520026328
 31
0.0
  0
LINE
  8
001
 62
               3
  5
44
 10
203.38884876997861
 20
307.58650520026339
 30
0.0
 11
203.88941057182996
 21
308.08706700211474
 31
0.0
  0
LINE
  8
001
 62
               3
  5
45
 10
203.38884876997827
 20
303.58650520026339
 30
0.0
 11
203.88941057183007
 21
303.08594339841159
 31
0.0
  0
ARC
  8
001
 62
               3
  5
46
 10
199.05459155681717
 20
275.58650520026333
 30
0.0
 40
5.0
 50
37.752001306173149
 51
90.0
  0
LINE
  8
001
 62
               3
  5
47
 10
198.60549692790721
 20
325.58650520026339
 30
0.0
 11
187.79733281243819
 21
325.58650520026339
 31
0.0
  0
LINE
  8
001
 62
               3
  5
48
 10
203.38884876997861
 20
307.58650520026339
 30
0.0
 11
184.79733281243813
 21
307.58650520026339
 31
0.0
  0
LINE
  8
001
 62
               3
  5
49
 10
203.38884876997827
 20
303.58650520026339
 30
0.0
 11
184.79733281243819
 21
303.58650520026339
 31
0.0
  0
LINE
  8
001
 62
               3
  5
4A
 10
277.79733281243841
 20
346.58650520026339
 30
0.0
 11
277.79733281243841
 21
264.58650520026345
 31
0.0
  0
ARC
  8
001
 62
               3
  5
4B
 10
274.79733281243841
 20
346.58650520026339
 30
0.0
 40
3.0
 50
0.0
 51
90.0
  0
LINE
  8
001
  6
CENTER
  5
4C
 10
92.797332812437958
 20
110.58650520026342
 30
0.0
 11
92.797332812437958
 21
220.58650520026342
 31
0.0
  0
LINE
  8
001
  6
CENTER
  5
4D
 10
232.89409610879659
 20
165.58650520026342
 30
0.0
 11
372.79733281243847
 21
165.58650520026342
 31
0.0
  0
CIRCLE
  8
001
 62
               3
  5
4E
 10
195.79733281243807
 20
193.58650520026342
 30
0.0
 40
7.0
  0
ARC
  8
001
 62
               3
  5
4F
 10
195.79733281243807
 20
193.58650520026342
 30
0.0
 40
10.999999999999886
 50
90.0
 51
223.3417582272227
  0
ARC
  8
001
 62
               3
  5
50
 10
195.79733281243807
 20
178.58650520026342
 30
0.0
 40
7.9999999999998863
 50
180.0
 51
270.0
  0
LINE
  8
001
 62
               3
  5
51
 10
187.79733281243819
 20
178.58650520026342
 30
0.0
 11
187.79733281243819
 21
186.03667076499269
 31
0.0
  0
LINE
  8
001
 62
               3
  5
52
 10
202.99783532817332
 20
204.58650520026345
 30
0.0
 11
195.79733281243807
 21
204.58650520026345
 31
0.0
  0
LINE
  8
001
 62
               3
  5
53
 10
202.99783532817332
 20
204.58650520026345
 30
0.0
 11
202.99783532817332
 21
170.58650520026345
 31
0.0
  0
LINE
  8
001
 62
               3
  5
54
 10
195.79733281243819
 20
170.58650520026342
 30
0.0
 11
225.79733281243807
 21
170.58650520026342
 31
0.0
  0
LINE
  8
001
 62
               3
  5
55
 10
228.79733281243807
 20
163.58650520026342
 30
0.0
 11
228.79733281243807
 21
167.58650520026342
 31
0.0
  0
ARC
  8
001
 62
               3
  5
56
 10
225.79733281243807
 20
167.58650520026342
 30
0.0
 40
3.0
 50
0.0
 51
90.0
  0
ARC
  8
001
 62
               3
  5
57
 10
225.79733281243807
 20
163.58650520026342
 30
0.0
 40
3.0
 50
270.0
 51
0.0
  0
LINE
  8
001
 62
               3
  5
58
 10
195.79733281243807
 20
215.58650520026345
 30
0.0
 11
277.79733281243841
 21
215.58650520026345
 31
0.0
  0
LINE
  8
001
 62
               3
  5
59
 10
193.79733281243819
 20
213.58650520026356
 30
0.0
 11
195.79733281243807
 21
215.58650520026345
 31
0.0
  0
LINE
  8
001
 62
               3
  5
5A
 10
193.79733281243819
 20
206.66320203088537
 30
0.0
 11
193.79733281243819
 21
213.58650520026353
 31
0.0
  0
ARC
  8
001
 62
               3
  5
5B
 10
190.79733281243819
 20
206.66320203088537
 30
0.0
 40
3.0
 50
290.92483242763797
 51
0.0
  0
LINE
  8
001
 62
               3
  5
5C
 10
195.79733281243807
 20
115.58650520026342
 30
0.0
 11
277.79733281243841
 21
115.58650520026342
 31
0.0
  0
LINE
  8
001
 62
               3
  5
5D
 10
195.79733281243807
 20
115.58650520026342
 30
0.0
 11
193.79733281243807
 21
117.58650520026342
 31
0.0
  0
LINE
  8
001
 62
               3
  5
5E
 10
193.79733281243807
 20
117.58650520026342
 30
0.0
 11
193.79733281243807
 21
160.58650520026342
 31
0.0
  0
LINE
  8
001
 62
               3
  5
5F
 10
225.79733281243807
 20
160.58650520026342
 30
0.0
 11
193.79733281243807
 21
160.58650520026342
 31
0.0
  0
POLYLINE
  8
001
 62
               3
  5
60
 66
               1
 10
0.0
 20
0.0
 30
0.0
  0
VERTEX
  8
001
 62
               3
  5
61
 10
72.797332812437958
 20
200.45388935901855
 30
0.0
  0
VERTEX
  8
001
 62
               3
  5
62
 10
71.547332812437958
 20
199.92837077804538
 30
0.0
  0
VERTEX
  8
001
 62
               3
  5
63
 10
70.297332812437958
 20
199.40285219707218
 30
0.0
  0
VERTEX
  8
001
 62
               3
  5
64
 10
69.761705579909218
 20
199.17371290837789
 30
0.0
  0
VERTEX
  8
001
 62
               3
  5
65
 10
69.235666917688263
 20
198.92488296821895
 30
0.0
  0
VERTEX
  8
001
 62
               3
  5
66
 10
68.699765971968404
 20
198.62325459357217
 30
0.0
  0
VERTEX
  8
001
 62
               3
  5
67
 10
68.188415940297773
 20
198.28045701053597
 30
0.0
  0
VERTEX
  8
001
 62
               3
  5
68
 10
67.700109008921956
 20
197.89386979845514
 30
0.0
  0
VERTEX
  8
001
 62
               3
  5
69
 10
67.24796953284357
 20
197.46633420150263
 30
0.0
  0
VERTEX
  8
001
 62
               3
  5
6A
 10
66.948326987937307
 20
197.13163593769448
 30
0.0
  0
VERTEX
  8
001
 62
               3
  5
6B
 10
66.67375713820104
 20
196.77598583122997
 30
0.0
  0
VERTEX
  8
001
 62
               3
  5
6C
 10
66.420551043750635
 20
196.39077623470888
 30
0.0
  0
VERTEX
  8
001
 62
               3
  5
6D
 10
66.199112055296609
 20
195.98661177837388
 30
0.0
  0
VERTEX
  8
001
 62
               3
  5
6E
 10
66.042067476947636
 20
195.63964558625383
 30
0.0
  0
VERTEX
  8
001
 62
               3
  5
6F
 10
65.909295425962284
 20
195.28265454497964
 30
0.0
  0
VERTEX
  8
001
 62
               3
  5
70
 10
65.799433490284684
 20
194.90971011995464
 30
0.0
  0
VERTEX
  8
001
 62
               3
  5
71
 10
65.716778148204128
 20
194.52986588844922
 30
0.0
  0
VERTEX
  8
001
 62
               3
  5
72
 10
65.661643322946432
 20
194.13714149695119
 30
0.0
  0
VERTEX
  8
001
 62
               3
  5
73
 10
65.635724835691065
 20
193.74132386781136
 30
0.0
  0
VERTEX
  8
001
 62
               3
  5
74
 10
65.634140210862057
 20
193.67142601221272
 30
0.0
  0
VERTEX
  8
001
 62
               3
  5
75
 10
65.633447797332522
 20
193.60151423684175
 30
0.0
  0
SEQEND
  8
001
  5
76
  0
POLYLINE
  8
001
 62
               3
  5
77
 66
               1
 10
0.0
 20
0.0
 30
0.0
  0
VERTEX
  8
001
 62
               3
  5
78
 10
72.797332812437958
 20
186.71912104150829
 30
0.0
  0
VERTEX
  8
001
 62
               3
  5
79
 10
71.547332812437958
 20
187.24463962248146
 30
0.0
  0
VERTEX
  8
001
 62
               3
  5
7A
 10
70.297332812437958
 20
187.77015820345466
 30
0.0
  0
VERTEX
  8
001
 62
               3
  5
7B
 10
69.761705579909218
 20
187.99929749214894
 30
0.0
  0
VERTEX
  8
001
 62
               3
  5
7C
 10
69.235666917688263
 20
188.24812743230788
 30
0.0
  0
VERTEX
  8
001
 62
               3
  5
7D
 10
68.699765971968404
 20
188.54975580695466
 30
0.0
  0
VERTEX
  8
001
 62
               3
  5
7E
 10
68.188415940297773
 20
188.89255338999087
 30
0.0
  0
VERTEX
  8
001
 62
               3
  5
7F
 10
67.700109008921956
 20
189.27914060207169
 30
0.0
  0
VERTEX
  8
001
 62
               3
  5
80
 10
67.24796953284357
 20
189.7066761990242
 30
0.0
  0
VERTEX
  8
001
 62
               3
  5
81
 10
66.948326987937307
 20
190.04137446283235
 30
0.0
  0
VERTEX
  8
001
 62
               3
  5
82
 10
66.67375713820104
 20
190.39702456929686
 30
0.0
  0
VERTEX
  8
001
 62
               3
  5
83
 10
66.420551043750635
 20
190.78223416581795
 30
0.0
  0
VERTEX
  8
001
 62
               3
  5
84
 10
66.199112055296609
 20
191.18639862215295
 30
0.0
  0
VERTEX
  8
001
 62
               3
  5
85
 10
66.042067476947636
 20
191.533364814273
 30
0.0
  0
VERTEX
  8
001
 62
               3
  5
86
 10
65.909295425962284
 20
191.8903558555472
 30
0.0
  0
VERTEX
  8
001
 62
               3
  5
87
 10
65.799433490284684
 20
192.2633002805722
 30
0.0
  0
VERTEX
  8
001
 62
               3
  5
88
 10
65.716778148204128
 20
192.64314451207761
 30
0.0
  0
VERTEX
  8
001
 62
               3
  5
89
 10
65.661643322946432
 20
193.03586890357565
 30
0.0
  0
VERTEX
  8
001
 62
               3
  5
8A
 10
65.635724835691065
 20
193.43168653271547
 30
0.0
  0
VERTEX
  8
001
 62
               3
  5
8B
 10
65.634140210862057
 20
193.50158438831411
 30
0.0
  0
VERTEX
  8
001
 62
               3
  5
8C
 10
65.633447797332522
 20
193.57149616368508
 30
0.0
  0
SEQEND
  8
001
  5
8D
  0
POLYLINE
  8
001
 62
               3
  5
8E
 66
               1
 10
0.0
 20
0.0
 30
0.0
  0
VERTEX
  8
001
 62
               3
  5
8F
 10
50.465311835404577
 20
170.58650520026342
 30
0.0
  0
VERTEX
  8
001
 62
               3
  5
90
 10
50.39171642914382
 20
170.56920491741943
 30
0.0
  0
VERTEX
  8
001
 62
               3
  5
91
 10
50.323414595734278
 20
170.54210335057272
 30
0.0
  0
VERTEX
  8
001
 62
               3
  5
92
 10
50.250968421021142
 20
170.48477097831741
 30
0.0
  0
VERTEX
  8
001
 62
               3
  5
93
 10
50.191307277444594
 20
170.41050514566771
 30
0.0
  0
VERTEX
  8
001
 62
               3
  5
94
 10
50.125858816683937
 20
170.30388099535446
 30
0.0
  0
VERTEX
  8
001
 62
               3
  5
95
 10
50.072150591352397
 20
170.19253970933434
 30
0.0
  0
VERTEX
  8
001
 62
               3
  5
96
 10
50.015389933668665
 20
170.0455524818351
 30
0.0
  0
VERTEX
  8
001
 62
               3
  5
97
 10
49.968342209641946
 20
169.89456503666324
 30
0.0
  0
VERTEX
  8
001
 62
               3
  5
98
 10
49.922209393705018
 20
169.71454324443241
 30
0.0
  0
VERTEX
  8
001
 62
               3
  5
99
 10
49.883839431802528
 20
169.53291067809917
 30
0.0
  0
VERTEX
  8
001
 62
               3
  5
9A
 10
49.847099076508798
 20
169.32313783435393
 30
0.0
  0
VERTEX
  8
001
 62
               3
  5
9B
 10
49.816864381463574
 20
169.1122701289232
 30
0.0
  0
VERTEX
  8
001
 62
               3
  5
9C
 10
49.790528574594383
 20
168.88521699452508
 30
0.0
  0
VERTEX
  8
001
 62
               3
  5
9D
 10
49.769476386702479
 20
168.65761880470339
 30
0.0
  0
VERTEX
  8
001
 62
               3
  5
9E
 10
49.75197640751901
 20
168.41475586167678
 30
0.0
  0
VERTEX
  8
001
 62
               3
  5
9F
 10
49.739700056850666
 20
168.17159402222651
 30
0.0
  0
VERTEX
  8
001
 62
               3
  5
A0
 10
49.731630119942942
 20
167.87911470153216
 30
0.0
  0
VERTEX
  8
001
 62
               3
  5
A1
 10
49.727621877721958
 20
167.58650520026342
 30
0.0
  0
SEQEND
  8
001
  5
A2
  0
LINE
  8
001
 62
               3
  5
A3
 10
49.727621877721958
 20
167.58650520026342
 30
0.0
 11
49.727621877721958
 21
163.58650520026342
 31
0.0
  0
POLYLINE
  8
001
 62
               3
  5
A4
 66
               1
 10
0.0
 20
0.0
 30
0.0
  0
VERTEX
  8
001
 62
               3
  5
A5
 10
49.727621877721958
 20
163.58650520026342
 30
0.0
  0
VERTEX
  8
001
 62
               3
  5
A6
 10
49.730564508953321
 20
163.33900051092871
 30
0.0
  0
VERTEX
  8
001
 62
               3
  5
A7
 10
49.7362792421942
 20
163.09156707125564
 30
0.0
  0
VERTEX
  8
001
 62
               3
  5
A8
 10
49.746666649048464
 20
162.85097988340715
 30
0.0
  0
VERTEX
  8
001
 62
               3
  5
A9
 10
49.76203758565066
 20
162.61064835989927
 30
0.0
  0
VERTEX
  8
001
 62
               3
  5
AA
 10
49.781042432837332
 20
162.38400962962376
 30
0.0
  0
VERTEX
  8
001
 62
               3
  5
AB
 10
49.804933320552436
 20
162.15781586886371
 30
0.0
  0
VERTEX
  8
001
 62
               3
  5
AC
 10
49.831817583485631
 20
161.95090156809755
 30
0.0
  0
VERTEX
  8
001
 62
               3
  5
AD
 10
49.864490522359461
 20
161.7449022810396
 30
0.0
  0
VERTEX
  8
001
 62
               3
  5
AE
 10
49.899426070396757
 20
161.5625057668768
 30
0.0
  0
VERTEX
  8
001
 62
               3
  5
AF
 10
49.940968388037049
 20
161.38125740846729
 30
0.0
  0
VERTEX
  8
001
 62
               3
  5
B0
 10
49.982742937888162
 20
161.2282591346889
 30
0.0
  0
VERTEX
  8
001
 62
               3
  5
B1
 10
50.03288758062547
 20
161.07847959552922
 30
0.0
  0
VERTEX
  8
001
 62
               3
  5
B2
 10
50.082575022229733
 20
160.95840437178981
 30
0.0
  0
VERTEX
  8
001
 62
               3
  5
B3
 10
50.141406581511205
 20
160.84072358642706
 30
0.0
  0
VERTEX
  8
001
 62
               3
  5
B4
 10
50.195240009895308
 20
160.75282883106067
 30
0.0
  0
VERTEX
  8
001
 62
               3
  5
B5
 10
50.262676367367192
 20
160.67903006674553
 30
0.0
  0
VERTEX
  8
001
 62
               3
  5
B6
 10
50.35767514910728
 20
160.62438764874628
 30
0.0
  0
VERTEX
  8
001
 62
               3
  5
B7
 10
50.46531183540452
 20
160.58650520026342
 30
0.0
  0
SEQEND
  8
001
  5
B8
  0
LINE
  8
001
 62
               3
  5
B9
 10
50.465311835404577
 20
160.58650520026342
 30
0.0
 11
135.12935378947157
 21
160.58650520026342
 31
0.0
  0
POLYLINE
  8
001
 62
               3
  5
BA
 66
               1
 10
0.0
 20
0.0
 30
0.0
  0
VERTEX
  8
001
 62
               3
  5
BB
 10
135.12935378947157
 20
160.58650520026342
 30
0.0
  0
VERTEX
  8
001
 62
               3
  5
BC
 10
135.20294919573232
 20
160.60380548310744
 30
0.0
  0
VERTEX
  8
001
 62
               3
  5
BD
 10
135.27125102914187
 20
160.63090704995417
 30
0.0
  0
VERTEX
  8
001
 62
               3
  5
BE
 10
135.34369720385499
 20
160.68823942220945
 30
0.0
  0
VERTEX
  8
001
 62
               3
  5
BF
 10
135.40335834743155
 20
160.76250525485912
 30
0.0
  0
VERTEX
  8
001
 62
               3
  5
C0
 10
135.4688068081922
 20
160.86912940517237
 30
0.0
  0
VERTEX
  8
001
 62
               3
  5
C1
 10
135.52251503352375
 20
160.98047069119249
 30
0.0
  0
VERTEX
  8
001
 62
               3
  5
C2
 10
135.57927569120747
 20
161.12745791869173
 30
0.0
  0
VERTEX
  8
001
 62
               3
  5
C3
 10
135.6263234152342
 20
161.2784453638636
 30
0.0
  0
VERTEX
  8
001
 62
               3
  5
C4
 10
135.67245623117111
 20
161.45846715609446
 30
0.0
  0
VERTEX
  8
001
 62
               3
  5
C5
 10
135.71082619307361
 20
161.64009972242772
 30
0.0
  0
VERTEX
  8
001
 62
               3
  5
C6
 10
135.74756654836733
 20
161.84987256617296
 30
0.0
  0
VERTEX
  8
001
 62
               3
  5
C7
 10
135.77780124341257
 20
162.06074027160369
 30
0.0
  0
VERTEX
  8
001
 62
               3
  5
C8
 10
135.80413705028175
 20
162.28779340600181
 30
0.0
  0
VERTEX
  8
001
 62
               3
  5
C9
 10
135.82518923817366
 20
162.5153915958235
 30
0.0
  0
VERTEX
  8
001
 62
               3
  5
CA
 10
135.84268921735713
 20
162.75825453885008
 30
0.0
  0
VERTEX
  8
001
 62
               3
  5
CB
 10
135.85496556802548
 20
163.00141637830032
 30
0.0
  0
VERTEX
  8
001
 62
               3
  5
CC
 10
135.86303550493321
 20
163.29389569899467
 30
0.0
  0
VERTEX
  8
001
 62
               3
  5
CD
 10
135.86704374715418
 20
163.58650520026342
 30
0.0
  0
SEQEND
  8
001
  5
CE
  0
LINE
  8
001
 62
               3
  5
CF
 10
135.86704374715407
 20
163.58650520026342
 30
0.0
 11
135.86704374715407
 21
167.58650520026342
 31
0.0
  0
POLYLINE
  8
001
 62
               3
  5
D0
 66
               1
 10
0.0
 20
0.0
 30
0.0
  0
VERTEX
  8
001
 62
               3
  5
D1
 10
135.86704374715407
 20
167.58650520026342
 30
0.0
  0
VERTEX
  8
001
 62
               3
  5
D2
 10
135.86410111592269
 20
167.83400988959812
 30
0.0
  0
VERTEX
  8
001
 62
               3
  5
D3
 10
135.85838638268183
 20
168.0814433292712
 30
0.0
  0
VERTEX
  8
001
 62
               3
  5
D4
 10
135.84799897582758
 20
168.32203051711969
 30
0.0
  0
VERTEX
  8
001
 62
               3
  5
D5
 10
135.83262803922537
 20
168.56236204062756
 30
0.0
  0
VERTEX
  8
001
 62
               3
  5
D6
 10
135.81362319203868
 20
168.78900077090307
 30
0.0
  0
VERTEX
  8
001
 62
               3
  5
D7
 10
135.78973230432359
 20
169.01519453166313
 30
0.0
  0
VERTEX
  8
001
 62
               3
  5
D8
 10
135.76284804139044
 20
169.22210883242929
 30
0.0
  0
VERTEX
  8
001
 62
               3
  5
D9
 10
135.73017510251663
 20
169.42810811948723
 30
0.0
  0
VERTEX
  8
001
 62
               3
  5
DA
 10
135.69523955447931
 20
169.61050463365004
 30
0.0
  0
VERTEX
  8
001
 62
               3
  5
DB
 10
135.65369723683898
 20
169.79175299205954
 30
0.0
  0
VERTEX
  8
001
 62
               3
  5
DC
 10
135.61192268698787
 20
169.94475126583794
 30
0.0
  0
VERTEX
  8
001
 62
               3
  5
DD
 10
135.56177804425056
 20
170.09453080499762
 30
0.0
  0
VERTEX
  8
001
 62
               3
  5
DE
 10
135.51209060264628
 20
170.21460602873702
 30
0.0
  0
VERTEX
  8
001
 62
               3
  5
DF
 10
135.45325904336482
 20
170.33228681409977
 30
0.0
  0
VERTEX
  8
001
 62
               3
  5
E0
 10
135.39942561498071
 20
170.42018156946617
 30
0.0
  0
VERTEX
  8
001
 62
               3
  5
E1
 10
135.33198925750884
 20
170.49398033378131
 30
0.0
  0
VERTEX
  8
001
 62
               3
  5
E2
 10
135.23699047576875
 20
170.54862275178056
 30
0.0
  0
VERTEX
  8
001
 62
               3
  5
E3
 10
135.12935378947151
 20
170.58650520026342
 30
0.0
  0
SEQEND
  8
001
  5
E4
  0
POLYLINE
  8
001
 62
               3
  5
E5
 66
               1
 10
0.0
 20
0.0
 30
0.0
  0
VERTEX
  8
001
 62
               3
  5
E6
 10
125.58452543394799
 20
167.58650520026342
 30
0.0
  0
VERTEX
  8
001
 62
               3
  5
E7
 10
125.58074932566113
 20
167.83106756974746
 30
0.0
  0
VERTEX
  8
001
 62
               3
  5
E8
 10
125.57342332713324
 20
168.0755088797479
 30
0.0
  0
VERTEX
  8
001
 62
               3
  5
E9
 10
125.56010605921757
 20
168.31326779396971
 30
0.0
  0
VERTEX
  8
001
 62
               3
  5
EA
 10
125.54042676742063
 20
168.5506108969274
 30
0.0
  0
VERTEX
  8
001
 62
               3
  5
EB
 10
125.51609545431324
 20
168.77459693478693
 30
0.0
  0
VERTEX
  8
001
 62
               3
  5
EC
 10
125.48557440888112
 20
168.99782920433685
 30
0.0
  0
VERTEX
  8
001
 62
               3
  5
ED
 10
125.45117546572541
 20
169.20252798961354
 30
0.0
  0
VERTEX
  8
001
 62
               3
  5
EE
 10
125.40958724853203
 20
169.4058314703374
 30
0.0
  0
VERTEX
  8
001
 62
               3
  5
EF
 10
125.36478809756254
 20
169.5876074144075
 30
0.0
  0
VERTEX
  8
001
 62
               3
  5
F0
 10
125.31178013516694
 20
169.76733212445444
 30
0.0
  0
VERTEX
  8
001
 62
               3
  5
F1
 10
125.25796469051862
 20
169.92052425985133
 30
0.0
  0
VERTEX
  8
001
 62
               3
  5
F2
 10
125.19446828412094
 20
170.06946386455414
 30
0.0
  0
VERTEX
  8
001
 62
               3
  5
F3
 10
125.12987353060198
 20
170.19307643869112
 30
0.0
  0
VERTEX
  8
001
 62
               3
  5
F4
 10
125.05432685946761
 20
170.31171907470733
 30
0.0
  0
VERTEX
  8
001
 62
               3
  5
F5
 10
124.98242341977652
 20
170.40323398012137
 30
0.0
  0
VERTEX
  8
001
 62
               3
  5
F6
 10
124.89777280799132
 20
170.47936968723249
 30
0.0
  0
VERTEX
  8
001
 62
               3
  5
F7
 10
124.76112847668281
 20
170.54526878718158
 30
0.0
  0
VERTEX
  8
001
 62
               3
  5
F8
 10
124.60928025361176
 20
170.58650520026342
 30
0.0
  0
SEQEND
  8
001
  5
F9
  0
LINE
  8
001
 62
               3
  5
FA
 10
125.58452543394799
 20
163.58650520026342
 30
0.0
 11
125.58452543394799
 21
167.58650520026342
 31
0.0
  0
POLYLINE
  8
001
 62
               3
  5
FB
 66
               1
 10
0.0
 20
0.0
 30
0.0
  0
VERTEX
  8
001
 62
               3
  5
FC
 10
124.6092802536117
 20
160.58650520026342
 30
0.0
  0
VERTEX
  8
001
 62
               3
  5
FD
 10
124.70726868805296
 20
160.60323726830606
 30
0.0
  0
VERTEX
  8
001
 62
               3
  5
FE
 10
124.800314643224
 20
160.63209909836272
 30
0.0
  0
VERTEX
  8
001
 62
               3
  5
FF
 10
124.89530987734371
 20
160.69024253141794
 30
0.0
  0
VERTEX
  8
001
 62
               3
  5
100
 10
124.9781076125181
 20
160.76791887458953
 30
0.0
  0
VERTEX
  8
001
 62
               3
  5
101
 10
125.06526058853233
 20
160.87680653645543
 30
0.0
  0
VERTEX
  8
001
 62
               3
  5
102
 10
125.13847250172574
 20
160.99445933123943
 30
0.0
  0
VERTEX
  8
001
 62
               3
  5
103
 10
125.21432342920917
 20
161.14719770519673
 30
0.0
  0
VERTEX
  8
001
 62
               3
  5
104
 10
125.27775512930145
 20
161.30586610758516
 30
0.0
  0
VERTEX
  8
001
 62
               3
  5
105
 10
125.33806411766817
 20
161.49027558659509
 30
0.0
  0
VERTEX
  8
001
 62
               3
  5
106
 10
125.38838345646059
 20
161.67755084610596
 30
0.0
  0
VERTEX
  8
001
 62
               3
  5
107
 10
125.43618249369013
 20
161.89294954413049
 30
0.0
  0
VERTEX
  8
001
 62
               3
  5
108
 10
125.47541527037038
 20
162.11009465739178
 30
0.0
  0
VERTEX
  8
001
 62
               3
  5
109
 10
125.50859495316193
 20
162.33852018064144
 30
0.0
  0
VERTEX
  8
001
 62
               3
  5
10A
 10
125.5349926855726
 20
162.56784069871341
 30
0.0
  0
VERTEX
  8
001
 62
               3
  5
10B
 10
125.55664426979381
 20
162.8117787553885
 30
0.0
  0
VERTEX
  8
001
 62
               3
  5
10C
 10
125.57152003029569
 20
163.05618339942058
 30
0.0
  0
VERTEX
  8
001
 62
               3
  5
10D
 10
125.58017495489445
 20
163.32126162969141
 30
0.0
  0
VERTEX
  8
001
 62
               3
  5
10E
 10
125.58452543394799
 20
163.58650520026342
 30
0.0
  0
SEQEND
  8
001
  5
10F
  0
POLYLINE
  8
001
 62
               3
  5
110
 66
               1
 10
0.0
 20
0.0
 30
0.0
  0
VERTEX
  8
001
 62
               3
  5
111
 10
60.010140190927928
 20
163.58650520026342
 30
0.0
  0
VERTEX
  8
001
 62
               3
  5
112
 10
60.013916299214785
 20
163.3419428307794
 30
0.0
  0
VERTEX
  8
001
 62
               3
  5
113
 10
60.021242297742674
 20
163.09750152077899
 30
0.0
  0
VERTEX
  8
001
 62
               3
  5
114
 10
60.034559565658363
 20
162.85974260655718
 30
0.0
  0
VERTEX
  8
001
 62
               3
  5
115
 10
60.054238857455346
 20
162.6223995035995
 30
0.0
  0
VERTEX
  8
001
 62
               3
  5
116
 10
60.078570170562735
 20
162.39841346573994
 30
0.0
  0
VERTEX
  8
001
 62
               3
  5
117
 10
60.109091215994852
 20
162.17518119618998
 30
0.0
  0
VERTEX
  8
001
 62
               3
  5
118
 10
60.143490159150566
 20
161.97048241091329
 30
0.0
  0
VERTEX
  8
001
 62
               3
  5
119
 10
60.185078376343938
 20
161.76717893018943
 30
0.0
  0
VERTEX
  8
001
 62
               3
  5
11A
 10
60.229877527313427
 20
161.58540298611931
 30
0.0
  0
VERTEX
  8
001
 62
               3
  5
11B
 10
60.282885489709031
 20
161.40567827607239
 30
0.0
  0
VERTEX
  8
001
 62
               3
  5
11C
 10
60.33670093435736
 20
161.25248614067556
 30
0.0
  0
VERTEX
  8
001
 62
               3
  5
11D
 10
60.400197340755028
 20
161.10354653597275
 30
0.0
  0
VERTEX
  8
001
 62
               3
  5
11E
 10
60.464792094273982
 20
160.97993396183574
 30
0.0
  0
VERTEX
  8
001
 62
               3
  5
11F
 10
60.540338765408364
 20
160.86129132581951
 30
0.0
  0
VERTEX
  8
001
 62
               3
  5
120
 10
60.612242205099449
 20
160.76977642040549
 30
0.0
  0
VERTEX
  8
001
 62
               3
  5
121
 10
60.696892816884656
 20
160.6936407132944
 30
0.0
  0
VERTEX
  8
001
 62
               3
  5
122
 10
60.833537148193166
 20
160.62774161334528
 30
0.0
  0
VERTEX
  8
001
 62
               3
  5
123
 10
60.985385371264215
 20
160.58650520026342
 30
0.0
  0
SEQEND
  8
001
  5
124
  0
LINE
  8
001
 62
               3
  5
125
 10
60.010140190928041
 20
167.58650520026342
 30
0.0
 11
60.010140190928041
 21
163.58650520026342
 31
0.0
  0
POLYLINE
  8
001
 62
               3
  5
126
 66
               1
 10
0.0
 20
0.0
 30
0.0
  0
VERTEX
  8
001
 62
               3
  5
127
 10
60.985385371264215
 20
170.58650520026342
 30
0.0
  0
VERTEX
  8
001
 62
               3
  5
128
 10
60.887396936822945
 20
170.5697731322208
 30
0.0
  0
VERTEX
  8
001
 62
               3
  5
129
 10
60.794350981651917
 20
170.54091130216418
 30
0.0
  0
VERTEX
  8
001
 62
               3
  5
12A
 10
60.699355747532209
 20
170.48276786910893
 30
0.0
  0
VERTEX
  8
001
 62
               3
  5
12B
 10
60.616558012357814
 20
170.40509152593731
 30
0.0
  0
VERTEX
  8
001
 62
               3
  5
12C
 10
60.529405036343597
 20
170.2962038640714
 30
0.0
  0
VERTEX
  8
001
 62
               3
  5
12D
 10
60.456193123150172
 20
170.17855106928741
 30
0.0
  0
VERTEX
  8
001
 62
               3
  5
12E
 10
60.380342195666742
 20
170.02581269533013
 30
0.0
  0
VERTEX
  8
001
 62
               3
  5
12F
 10
60.316910495574461
 20
169.86714429294167
 30
0.0
  0
VERTEX
  8
001
 62
               3
  5
130
 10
60.256601507207741
 20
169.68273481393175
 30
0.0
  0
VERTEX
  8
001
 62
               3
  5
131
 10
60.206282168415328
 20
169.49545955442088
 30
0.0
  0
VERTEX
  8
001
 62
               3
  5
132
 10
60.158483131185783
 20
169.28006085639635
 30
0.0
  0
VERTEX
  8
001
 62
               3
  5
133
 10
60.119250354505539
 20
169.06291574313505
 30
0.0
  0
VERTEX
  8
001
 62
               3
  5
134
 10
60.086070671713976
 20
168.8344902198854
 30
0.0
  0
VERTEX
  8
001
 62
               3
  5
135
 10
60.059672939303312
 20
168.60516970181342
 30
0.0
  0
VERTEX
  8
001
 62
               3
  5
136
 10
60.038021355082108
 20
168.36123164513836
 30
0.0
  0
VERTEX
  8
001
 62
               3
  5
137
 10
60.023145594580228
 20
168.11682700110632
 30
0.0
  0
VERTEX
  8
001
 62
               3
  5
138
 10
60.014490669981463
 20
167.85174877083546
 30
0.0
  0
VERTEX
  8
001
 62
               3
  5
139
 10
60.010140190927928
 20
167.58650520026342
 30
0.0
  0
SEQEND
  8
001
  5
13A
  0
LINE
  8
001
 62
               3
  5
13B
 10
50.797332812437958
 20
115.58650520026342
 30
0.0
 11
48.797332812437958
 21
117.58650520026342
 31
0.0
  0
LINE
  8
001
 62
               3
  5
13C
 10
50.797332812437958
 20
215.58650520026345
 30
0.0
 11
48.797332812437958
 21
213.58650520026345
 31
0.0
  0
LINE
  8
001
 62
               3
  5
13D
 10
48.797332812437958
 20
117.58650520026342
 30
0.0
 11
48.797332812437958
 21
213.58650520026342
 31
0.0
  0
LINE
  8
001
 62
               3
  5
13E
 10
134.79733281243796
 20
115.58650520026342
 30
0.0
 11
136.79733281243796
 21
117.58650520026342
 31
0.0
  0
LINE
  8
001
 62
               3
  5
13F
 10
134.79733281243796
 20
215.58650520026345
 30
0.0
 11
136.79733281243796
 21
213.58650520026345
 31
0.0
  0
LINE
  8
001
 62
               3
  5
140
 10
136.79733281243796
 20
213.58650520026345
 30
0.0
 11
136.79733281243796
 21
117.58650520026345
 31
0.0
  0
LINE
  8
001
 62
               3
  5
141
 10
50.797332812437958
 20
115.58650520026342
 30
0.0
 11
134.7973328124383
 21
115.58650520026342
 31
0.0
  0
LINE
  8
001
 62
               3
  5
142
 10
50.797332812437958
 20
215.58650520026345
 30
0.0
 11
134.7973328124383
 21
215.58650520026345
 31
0.0
  0
LINE
  8
001
 62
               3
  5
143
 10
90.797332812437958
 20
170.58650520026376
 30
0.0
 11
50.465311835404464
 21
170.58650520026376
 31
0.0
  0
LINE
  8
001
 62
               3
  5
144
 10
94.797332812437958
 20
170.58650520026376
 30
0.0
 11
135.12935378947145
 21
170.58650520026376
 31
0.0
  0
LINE
  8
001
 62
               3
  5
145
 10
90.797332812437958
 20
170.58650520026376
 30
0.0
 11
90.797332812437958
 21
215.58650520026342
 31
0.0
  0
LINE
  8
001
 62
               3
  5
146
 10
94.797332812437958
 20
170.58650520026376
 30
0.0
 11
94.797332812437958
 21
215.58650520026342
 31
0.0
  0
LINE
  8
001
 62
               3
  5
147
 10
365.79733281243841
 20
342.58650520026339
 30
0.0
 11
280.79733281243841
 21
342.58650520026339
 31
0.0
  0
LINE
  8
001
  6
CENTER
  5
148
 10
183.39138596178566
 20
305.58650520026339
 30
0.0
 11
369.63396736249206
 21
305.58650520026339
 31
0.0
  0
LINE
  8
001
 62
               3
  5
149
 10
277.79733281243841
 20
215.58650520026345
 30
0.0
 11
277.79733281243841
 21
115.58650520026345
 31
0.0
  0
LINE
  8
001
 62
               3
  5
14A
 10
280.79733281243841
 20
128.5865052002633
 30
0.0
 11
280.79733281243841
 21
202.58650520026342
 31
0.0
  0
LINE
  8
001
 62
               3
  5
14B
 10
237.79733281243807
 20
165.58650520026342
 30
0.0
 11
270.27310461692025
 21
133.11073339578127
 31
0.0
  0
LINE
  8
001
 62
               3
  5
14C
 10
237.79733281243807
 20
165.58650520026342
 30
0.0
 11
270.27310461692025
 21
198.06227700474557
 31
0.0
  0
LINE
  8
001
 62
               3
  5
14D
 10
192.82686567745748
 20
191.87150520026341
 30
0.0
 11
192.82686567745748
 21
195.30150520026342
 31
0.0
  0
LINE
  8
001
 62
               3
  5
14E
 10
198.76779994741867
 20
195.30150520026342
 30
0.0
 11
198.76779994741867
 21
191.87150520026341
 31
0.0
  0
LINE
  8
001
 62
               3
  5
14F
 10
198.76779994741867
 20
191.87150520026341
 30
0.0
 11
195.79733281243804
 21
190.15650520026341
 31
0.0
  0
LINE
  8
001
 62
               3
  5
150
 10
195.79733281243807
 20
197.0165052002634
 30
0.0
 11
192.82686567745745
 21
195.30150520026339
 31
0.0
  0
LINE
  8
001
 62
               3
  5
151
 10
195.79733281243807
 20
197.0165052002634
 30
0.0
 11
198.76779994741869
 21
195.30150520026339
 31
0.0
  0
LINE
  8
001
 62
               3
  5
152
 10
195.79733281243807
 20
190.15650520026344
 30
0.0
 11
192.82686567745745
 21
191.87150520026344
 31
0.0
  0
CIRCLE
  8
001
 62
               3
  5
153
 10
195.79733281243807
 20
193.58650520026342
 30
0.0
 40
6.5
  0
CIRCLE
  8
001
 62
               3
  5
154
 10
195.79733281243807
 20
193.58650520026342
 30
0.0
 40
3.4299999999999988
  0
LINE
  8
001
 62
               3
  5
155
 10
192.82686567745748
 20
176.87150520026341
 30
0.0
 11
192.82686567745748
 21
180.30150520026342
 31
0.0
  0
LINE
  8
001
 62
               3
  5
156
 10
198.76779994741867
 20
180.30150520026342
 30
0.0
 11
198.76779994741867
 21
176.87150520026341
 31
0.0
  0
LINE
  8
001
 62
               3
  5
157
 10
198.76779994741867
 20
176.87150520026341
 30
0.0
 11
195.79733281243804
 21
175.15650520026341
 31
0.0
  0
LINE
  8
001
 62
               3
  5
158
 10
195.79733281243807
 20
182.0165052002634
 30
0.0
 11
192.82686567745745
 21
180.30150520026339
 31
0.0
  0
LINE
  8
001
 62
               3
  5
159
 10
195.79733281243807
 20
182.0165052002634
 30
0.0
 11
198.76779994741869
 21
180.30150520026339
 31
0.0
  0
LINE
  8
001
 62
               3
  5
15A
 10
195.79733281243807
 20
175.15650520026344
 30
0.0
 11
192.82686567745745
 21
176.87150520026344
 31
0.0
  0
CIRCLE
  8
001
 62
               3
  5
15B
 10
195.79733281243807
 20
178.58650520026342
 30
0.0
 40
6.5
  0
CIRCLE
  8
001
 62
               3
  5
15C
 10
195.79733281243807
 20
178.58650520026342
 30
0.0
 40
3.4299999999999988
  0
LINE
  8
001
 62
               3
  5
15D
 10
121.59733281243791
 20
172.08650520026342
 30
0.0
 11
127.99733281243783
 21
172.08650520026353
 31
0.0
  0
LINE
  8
001
 62
               3
  5
15E
 10
121.59733281243803
 20
185.08650520026342
 30
0.0
 11
127.99733281243795
 21
185.0865052002633
 31
0.0
  0
LINE
  8
001
 62
               3
  5
15F
 10
128.79733281243784
 20
184.28650520026346
 30
0.0
 11
128.79733281243784
 21
172.88650520026337
 31
0.0
  0
LINE
  8
001
 62
               3
  5
160
 10
120.79733281243796
 20
184.28650520026335
 30
0.0
 11
120.79733281243796
 21
172.88650520026349
 31
0.0
  0
LINE
  8
001
 62
               3
  5
161
 10
90.797332812437958
 20
175.8365052002633
 30
0.0
 11
90.797332812437958
 21
181.33650520026353
 31
0.0
  0
LINE
  8
001
 62
               3
  5
162
 10
92.047332812437958
 20
182.58650520026342
 30
0.0
 11
90.797332812437958
 21
181.33650520026353
 31
0.0
  0
LINE
  8
001
 62
               3
  5
163
 10
90.797332812437958
 20
175.8365052002633
 30
0.0
 11
92.047332812437958
 21
174.58650520026342
 31
0.0
  0
LINE
  8
001
 62
               3
  5
164
 10
92.047332812437958
 20
182.58650520026342
 30
0.0
 11
92.047332812437958
 21
174.58650520026342
 31
0.0
  0
ARC
  8
001
 62
               3
  5
165
 10
127.99733281243789
 20
172.88650520026337
 30
0.0
 40
0.8
 50
270.0
 51
0.0
  0
ARC
  8
001
 62
               3
  5
166
 10
127.99733281243789
 20
184.28650520026346
 30
0.0
 40
0.8
 50
0.0
 51
90.0
  0
ARC
  8
001
 62
               3
  5
167
 10
121.59733281243803
 20
184.28650520026335
 30
0.0
 40
0.8
 50
90.0
 51
180.0
  0
ARC
  8
001
 62
               3
  5
168
 10
121.59733281243791
 20
172.88650520026337
 30
0.0
 40
0.8
 50
180.0
 51
270.0
  0
LINE
  8
001
 62
               3
  5
169
 10
118.09733281243803
 20
187.08650520026342
 30
0.0
 11
124.49733281243795
 21
187.08650520026353
 31
0.0
  0
LINE
  8
001
 62
               3
  5
16A
 10
118.09733281243803
 20
200.08650520026345
 30
0.0
 11
124.49733281243795
 21
200.08650520026333
 31
0.0
  0
LINE
  8
001
 62
               3
  5
16B
 10
125.29733281243796
 20
199.28650520026349
 30
0.0
 11
125.29733281243796
 21
187.8865052002634
 31
0.0
  0
LINE
  8
001
 62
               3
  5
16C
 10
72.297332812437958
 20
190.83650520026353
 30
0.0
 11
72.297332812437958
 21
196.3365052002633
 31
0.0
  0
ARC
  8
001
 62
               3
  5
16D
 10
124.49733281243789
 20
187.88650520026337
 30
0.0
 40
0.8
 50
270.0
 51
0.0
  0
ARC
  8
001
 62
               3
  5
16E
 10
124.49733281243789
 20
199.28650520026349
 30
0.0
 40
0.8
 50
0.0
 51
90.0
  0
LINE
  8
001
 62
               3
  5
16F
 10
189.29733281243819
 20
280.28650520026326
 30
0.0
 11
189.2973328124383
 21
273.88650520026334
 31
0.0
  0
LINE
  8
001
 62
               3
  5
170
 10
201.49733281243823
 20
273.08650520026333
 30
0.0
 11
190.09733281243814
 21
273.08650520026333
 31
0.0
  0
LINE
  8
001
 62
               3
  5
171
 10
193.0473328124383
 20
326.08650520026333
 30
0.0
 11
198.54733281243807
 21
326.08650520026333
 31
0.0
  0
ARC
  8
001
 62
               3
  5
172
 10
190.09733281243814
 20
273.8865052002634
 30
0.0
 40
0.8
 50
180.0
 51
270.0
  0
ARC
  8
001
 62
               3
  5
173
 10
201.49733281243823
 20
273.8865052002634
 30
0.0
 40
0.8
 50
270.0
 51
0.0
  0
LINE
  8
001
 62
               3
  5
174
 10
201.49733281243823
 20
269.58650520026333
 30
0.0
 11
190.09733281243814
 21
269.58650520026333
 31
0.0
  0
ARC
  8
001
 62
               3
  5
175
 10
190.09733281243814
 20
270.3865052002634
 30
0.0
 40
0.8
 50
180.0
 51
270.0
  0
ARC
  8
001
 62
               3
  5
176
 10
201.49733281243823
 20
270.3865052002634
 30
0.0
 40
0.8
 50
270.0
 51
0.0
  0
LINE
  8
001
 62
               3
  5
177
 10
189.2973328124383
 20
273.08650520026333
 30
0.0
 11
189.29733281243836
 21
270.38650520026334
 31
0.0
  0
LINE
  8
001
 62
               3
  5
178
 10
202.29733281243807
 20
273.08650520026333
 30
0.0
 11
202.29733281243801
 21
270.38650520026334
 31
0.0
  0
LINE
  8
001
 62
               3
  5
179
 10
72.797332812437958
 20
196.83650520026333
 30
0.0
 11
72.297332812437958
 21
196.33650520026328
 31
0.0
  0
LINE
  8
001
 62
               3
  5
17A
 10
72.297332812437958
 20
190.83650520026353
 30
0.0
 11
72.797332812437958
 21
190.33650520026347
 31
0.0
  0
LINE
  8
001
 62
               3
  5
17B
 10
90.797332812437958
 20
197.58650520026345
 30
0.0
 11
94.797332812437958
 21
197.58650520026345
 31
0.0
  0
LINE
  8
001
 62
               3
  5
17C
 10
90.797332812437958
 20
190.26300520026345
 30
0.0
 11
94.797332812437958
 21
190.26300520026345
 31
0.0
  0
LINE
  8
001
 62
               3
  5
17D
 10
90.797332812437958
 20
189.58650520026342
 30
0.0
 11
94.797332812437958
 21
189.58650520026342
 31
0.0
  0
LINE
  8
001
 62
               3
  5
17E
 10
90.797332812437958
 20
196.91000520026341
 30
0.0
 11
94.797332812437958
 21
196.91000520026341
 31
0.0
  0
ARC
  8
001
 62
               3
  5
17F
 10
118.09733281243803
 20
199.28650520026338
 30
0.0
 40
0.8
 50
90.0
 51
112.02431283702114
  0
ARC
  8
001
 62
               3
  5
180
 10
118.09733281243803
 20
187.88650520026337
 30
0.0
 40
0.8
 50
247.97568716297886
 51
270.0
  0
LINE
  8
001
 62
               3
  5
181
 10
91.370832812438039
 20
181.91000520026338
 30
0.0
 11
94.797332812437958
 21
181.91000520026338
 31
0.0
  0
LINE
  8
001
 62
               3
  5
182
 10
91.370832812438039
 20
175.26300520026345
 30
0.0
 11
94.797332812437958
 21
175.26300520026345
 31
0.0
  0
LINE
  8
001
 62
               3
  5
183
 10
92.047332812437958
 20
182.58650520026342
 30
0.0
 11
94.797332812437958
 21
182.58650520026342
 31
0.0
  0
LINE
  8
001
 62
               3
  5
184
 10
117.7973328124383
 20
182.58650520026342
 30
0.0
 11
120.7973328124379
 21
182.58650520026342
 31
0.0
  0
LINE
  8
001
 62
               3
  5
185
 10
92.047332812437958
 20
174.58650520026342
 30
0.0
 11
94.797332812437958
 21
174.58650520026342
 31
0.0
  0
LINE
  8
001
 62
               3
  5
186
 10
117.7973328124383
 20
174.58650520026342
 30
0.0
 11
120.7973328124379
 21
174.58650520026342
 31
0.0
  0
LINE
  8
001
 62
               3
  5
187
 10
198.75569540608547
 20
325.87814260661594
 30
0.0
 11
198.5473328124381
 21
326.08650520026328
 31
0.0
  0
LINE
  8
001
 62
               3
  5
188
 10
193.0473328124383
 20
326.08650520026333
 30
0.0
 11
192.54733281243833
 21
325.58650520026339
 31
0.0
  0
ARC
  8
001
 62
               3
  5
189
 10
237.79733281243807
 20
305.58650520026339
 30
0.0
 40
44.0
 50
24.61997732865601
 51
177.39474873494271
  0
ARC
  8
001
 62
               3
  5
18A
 10
237.79733281243807
 20
305.58650520026339
 30
0.0
 40
44.0
 50
182.60525126505729
 51
335.38002267134397
  0
LINE
  8
001
 62
               3
  5
18B
 10
199.79733281243819
 20
307.58650520026339
 30
0.0
 11
199.79733281243819
 21
303.58650520026339
 31
0.0
  0
LINE
  8
001
 62
               3
  5
18C
 10
199.12083281243815
 20
307.58650520026339
 30
0.0
 11
199.12083281243815
 21
303.58650520026339
 31
0.0
  0
LINE
  8
001
 62
               3
  5
18D
 10
192.47383281243822
 20
307.58650520026339
 30
0.0
 11
192.47383281243822
 21
303.58650520026339
 31
0.0
  0
LINE
  8
001
 62
               3
  5
18E
 10
191.79733281243819
 20
307.58650520026339
 30
0.0
 11
191.79733281243819
 21
303.58650520026339
 31
0.0
  0
ARC
  8
001
 62
               3
  5
18F
 10
190.09733281243814
 20
280.28650520026326
 30
0.0
 40
0.8
 50
157.9756871629528
 51
180.0
  0
LINE
  8
001
 62
               3
  5
190
 10
202.29733281243819
 20
279.39237292643213
 30
0.0
 11
202.29733281243807
 21
273.88650520026329
 31
0.0
  0
TEXT
  8
001
  5
191
 10
55.208084871072742
 20
56.968610288156611
 30
0.0
 40
15.0
  1
2006.1.31
 41
0.6750000675000067
  0
TEXT
  8
001
  5
192
 10
55.208084871072742
 20
39.468610288156611
 30
0.0
 40
15.0
  1
FS-68SS
 41
0.5
  0
ENDSEC
  0
EOF
