  0
SECTION
  2
HEADER
  9
$ACADVER
  1
AC1009
  9
$DWGCODEPAGE
  3
dos932
  9
$INSBASE
 10
0.0
 20
0.0
 30
0.0
  9
$EXTMIN
 10
48.638427734375
 20
24.071044921875
 30
1.0000000000000000E+20
  9
$EXTMAX
 10
586.27691650390625
 20
480.425048828125
 30
-1.0000000000000000E+20
  9
$LIMMIN
 10
0.0
 20
0.0
  9
$LIMMAX
 10
12.0
 20
9.0
  9
$ORTHOMODE
 70
               0
  9
$REGENMODE
 70
               1
  9
$FILLMODE
 70
               1
  9
$QTEXTMODE
 70
               0
  9
$MIRRTEXT
 70
               1
  9
$DRAGMODE
 70
               2
  9
$LTSCALE
 40
8.9606414794921871
  9
$OSMODE
 70
               0
  9
$ATTMODE
 70
               1
  9
$TEXTSIZE
 40
3.2000000000000002
  9
$TRACEWID
 40
0.05
  9
$TEXTSTYLE
  7
STANDARD
  9
$CLAYER
  8
0
  9
$CELTYPE
  6
CONTINUOUS
  9
$CECOLOR
 62
             256
  9
$DIMSCALE
 40
1.0
  9
$DIMASZ
 40
0.18
  9
$DIMEXO
 40
0.0625
  9
$DIMDLI
 40
0.38
  9
$DIMRND
 40
0.0
  9
$DIMDLE
 40
0.0
  9
$DIMEXE
 40
0.18
  9
$DIMTP
 40
0.0
  9
$DIMTM
 40
0.0
  9
$DIMTXT
 40
0.18
  9
$DIMCEN
 40
0.09
  9
$DIMTSZ
 40
0.0
  9
$DIMTOL
 70
               0
  9
$DIMLIM
 70
               0
  9
$DIMTIH
 70
               1
  9
$DIMTOH
 70
               1
  9
$DIMSE1
 70
               0
  9
$DIMSE2
 70
               0
  9
$DIMTAD
 70
               0
  9
$DIMZIN
 70
               0
  9
$DIMBLK
  1

  9
$DIMASO
 70
               1
  9
$DIMSHO
 70
               1
  9
$DIMPOST
  1

  9
$DIMAPOST
  1

  9
$DIMALT
 70
               0
  9
$DIMALTD
 70
               2
  9
$DIMALTF
 40
25.399999999999999
  9
$DIMLFAC
 40
1.0
  9
$DIMTOFL
 70
               0
  9
$DIMTVP
 40
0.0
  9
$DIMTIX
 70
               0
  9
$DIMSOXD
 70
               0
  9
$DIMSAH
 70
               0
  9
$DIMBLK1
  1

  9
$DIMBLK2
  1

  9
$DIMSTYLE
  2
STANDARD
  9
$DIMCLRD
 70
               0
  9
$DIMCLRE
 70
               0
  9
$DIMCLRT
 70
               0
  9
$DIMTFAC
 40
1.0
  9
$DIMGAP
 40
0.09
  9
$LUNITS
 70
               2
  9
$LUPREC
 70
               4
  9
$AXISMODE
 70
               0
  9
$AXISUNIT
 10
0.0
 20
0.0
  9
$SKETCHINC
 40
0.1
  9
$FILLETRAD
 40
0.0
  9
$AUNITS
 70
               0
  9
$AUPREC
 70
               0
  9
$MENU
  1
acad
  9
$ELEVATION
 40
0.0
  9
$PELEVATION
 40
0.0
  9
$THICKNESS
 40
0.0
  9
$LIMCHECK
 70
               0
  9
$BLIPMODE
 70
               1
  9
$CHAMFERA
 40
0.0
  9
$CHAMFERB
 40
0.0
  9
$SKPOLY
 70
               0
  9
$TDCREATE
 40
0.000000000
  9
$TDUPDATE
 40
0.000000000
  9
$TDINDWG
 40
0.0000000000
  9
$TDUSRTIMER
 40
0.0000000000
  9
$USRTIMER
 70
               1
  9
$ANGBASE
 50
0.0
  9
$ANGDIR
 70
               0
  9
$PDMODE
 70
               0
  9
$PDSIZE
 40
0.0
  9
$PLINEWID
 40
0.0
  9
$COORDS
 70
               1
  9
$SPLFRAME
 70
               0
  9
$SPLINETYPE
 70
               6
  9
$SPLINESEGS
 70
               8
  9
$ATTDIA
 70
               0
  9
$ATTREQ
 70
               1
  9
$HANDLING
 70
               1
  9
$HANDSEED
  5
1FA
  9
$SURFTAB1
 70
               6
  9
$SURFTAB2
 70
               6
  9
$SURFTYPE
 70
               6
  9
$SURFU
 70
               6
  9
$SURFV
 70
               6
  9
$UCSNAME
  2

  9
$UCSORG
 10
0.0
 20
0.0
 30
0.0
  9
$UCSXDIR
 10
1.0
 20
0.0
 30
0.0
  9
$UCSYDIR
 10
0.0
 20
1.0
 30
0.0
  9
$PUCSNAME
  2

  9
$PUCSORG
 10
0.0
 20
0.0
 30
0.0
  9
$PUCSXDIR
 10
1.0
 20
0.0
 30
0.0
  9
$PUCSYDIR
 10
0.0
 20
1.0
 30
0.0
  9
$USERI1
 70
               0
  9
$USERI2
 70
               0
  9
$USERI3
 70
               0
  9
$USERI4
 70
               0
  9
$USERI5
 70
               0
  9
$USERR1
 40
0.0
  9
$USERR2
 40
0.0
  9
$USERR3
 40
0.0
  9
$USERR4
 40
0.0
  9
$USERR5
 40
0.0
  9
$WORLDVIEW
 70
               1
  9
$SHADEDGE
 70
               3
  9
$SHADEDIF
 70
              70
  9
$TILEMODE
 70
               1
  9
$MAXACTVP
 70
              16
  9
$PINSBASE
 10
0.0
 20
0.0
 30
0.0
  9
$PLIMCHECK
 70
               0
  9
$PEXTMIN
 10
1.0000000000000000E+20
 20
1.0000000000000000E+20
 30
1.0000000000000000E+20
  9
$PEXTMAX
 10
-1.0000000000000000E+20
 20
-1.0000000000000000E+20
 30
-1.0000000000000000E+20
  9
$PLIMMIN
 10
0.0
 20
0.0
  9
$PLIMMAX
 10
12.0
 20
9.0
  9
$UNITMODE
 70
               0
  9
$VISRETAIN
 70
               0
  9
$PLINEGEN
 70
               0
  9
$PSLTSCALE
 70
               1
  9
$TREEDEPTH
 70
            3020
  0
ENDSEC
  0
SECTION
  2
TABLES
  0
TABLE
  2
VPORT
 70
               1
  0
VPORT
  2
*ACTIVE
 70
               0
 10
0.0
 20
0.0
 11
1.0
 21
1.0
 12
317.45767211914062
 22
252.248046875
 13
0.0
 23
0.0
 14
1.0
 24
1.0
 15
0.0
 25
0.0
 16
0.0
 26
0.0
 36
1.0
 17
0.0
 27
0.0
 37
0.0
 40
460.9175439453125
 41
1.6912879999999999
 42
50.0
 43
0.0
 44
0.0
 50
0.0
 51
0.0
 71
               0
 72
             100
 73
               1
 74
               1
 75
               0
 76
               0
 77
               0
 78
               0
  0
ENDTAB
  0
TABLE
  2
LTYPE
 70
               5
  0
LTYPE
  2
CONTINUOUS
 70
              64
  3
Solid line
 72
              65
 73
               0
 40
0.0
  0
LTYPE
  2
DASHED
 70
              64
  3
DASHED
 72
              65
 73
               2
 40
0.75
 49
0.5
 49
-0.25
  0
LTYPE
  2
HIDDEN
 70
              64
  3
HIDDEN
 72
              65
 73
               2
 40
0.375
 49
0.25
 49
-0.125
  0
LTYPE
  2
CENTER
 70
              64
  3
CENTER
 72
              65
 73
               4
 40
2.0
 49
1.25
 49
-0.25
 49
0.25
 49
-0.25
  0
LTYPE
  2
PHANTOM
 70
              64
  3
PHANTOM
 72
              65
 73
               6
 40
2.5
 49
1.25
 49
-0.25
 49
0.25
 49
-0.25
 49
0.25
 49
-0.25
  0
ENDTAB
  0
TABLE
  2
LAYER
 70
               2
  0
LAYER
  2
0
 70
               0
 62
               7
  6
CONTINUOUS
  0
LAYER
  2
001
 70
               0
 62
               7
  6
CONTINUOUS
  0
ENDTAB
  0
TABLE
  2
STYLE
 70
               2
  0
STYLE
  2
STANDARD
 70
               0
 40
0.0
 41
1.0
 50
0.0
 71
               0
 42
0.2
  3
TXT
  4
BIGFONT
  0
STYLE
  2
TATEGAKI
 70
               4
 40
1.0
 41
1.0
 50
0.0
 71
               0
 42
0.2
  3
TXT
  4
BIGFONT
  0
ENDTAB
  0
TABLE
  2
VIEW
 70
               0
  0
ENDTAB
  0
TABLE
  2
UCS
 70
               0
  0
ENDTAB
  0
TABLE
  2
APPID
 70
               1
  0
APPID
  2
ACAD
 70
               0
  0
ENDTAB
  0
TABLE
  2
DIMSTYLE
 70
               1
  0
DIMSTYLE
  2
STANDARD
 70
               0
  3

  4

  5

  6

  7

 40
1.0
 41
0.18
 42
0.0625
 43
0.38
 44
0.18
 45
0.0
 46
0.0
 47
0.0
 48
0.0
 71
               0
 72
               0
 73
               1
 74
               1
 75
               0
 76
               0
 77
               0
 78
               0
140
0.18
141
0.09
142
0.0
143
25.399999999999999
144
1.0
145
0.0
146
1.0
147
0.09
170
               0
171
               2
172
               0
173
               0
174
               0
175
               0
176
               0
177
               0
178
               0
  0
ENDTAB
  0
ENDSEC
  0
SECTION
  2
BLOCKS
  0
ENDSEC
  0
SECTION
  2
ENTITIES
  0
LINE
  8
001
 62
               3
  5
23
 10
419.13200246089855
 20
199.03254117848277
 30
0.0
 11
364.13200246089855
 21
199.03254117848277
 31
0.0
  0
LINE
  8
001
 62
               3
  5
24
 10
419.13200246089855
 20
221.03254117848277
 30
0.0
 11
419.13200246089855
 21
199.03254117848277
 31
0.0
  0
LINE
  8
001
 62
               3
  5
25
 10
324.13200246089878
 20
309.0325411784828
 30
0.0
 11
234.13200246089878
 21
309.0325411784828
 31
0.0
  0
LINE
  8
001
 62
               3
  5
26
 10
326.13200246089878
 20
224.03254117848277
 30
0.0
 11
326.13200246089878
 21
307.0325411784828
 31
0.0
  0
LINE
  8
001
 62
               3
  5
27
 10
232.13200246089878
 20
307.0325411784828
 30
0.0
 11
234.13200246089883
 21
309.0325411784828
 31
0.0
  0
LINE
  8
001
 62
               3
  5
28
 10
324.13200246089878
 20
309.0325411784828
 30
0.0
 11
326.13200246089878
 21
307.0325411784828
 31
0.0
  0
LINE
  8
001
  6
CENTER
  5
29
 10
279.13200246089878
 20
311.63783705895582
 30
0.0
 11
279.13200246089878
 21
195.14720543392673
 31
0.0
  0
LINE
  8
001
 62
               3
  5
2A
 10
327.59646855496612
 20
280.56807508441557
 30
0.0
 11
387.6675363668316
 21
220.49700727255009
 31
0.0
  0
ARC
  8
001
 62
               3
  5
2B
 10
391.20307027276408
 20
224.03254117848277
 30
0.0
 40
5.0
 50
225.0
 51
270.0
  0
ARC
  8
001
 62
               3
  5
2C
 10
331.13200246089878
 20
284.10360899034833
 30
0.0
 40
5.0
 50
180.0
 51
225.0
  0
LINE
  8
001
 62
               3
  5
2D
 10
266.13200246089878
 20
239.03254117848277
 30
0.0
 11
232.13200246089878
 21
239.03254117848277
 31
0.0
  0
LINE
  8
001
 62
               3
  5
2E
 10
266.13200246089855
 20
249.0325411784828
 30
0.0
 11
232.1320024608986
 21
249.0325411784828
 31
0.0
  0
LINE
  8
001
 62
               3
  5
2F
 10
269.13200246089878
 20
242.0325411784828
 30
0.0
 11
269.13200246089878
 21
246.0325411784828
 31
0.0
  0
ARC
  8
001
 62
               3
  5
30
 10
266.13200246089855
 20
246.0325411784828
 30
0.0
 40
3.0
 50
0.0
 51
90.0
  0
ARC
  8
001
 62
               3
  5
31
 10
266.13200246089878
 20
242.0325411784828
 30
0.0
 40
3.0
 50
270.0
 51
0.0
  0
LINE
  8
001
 62
               3
  5
32
 10
232.13200246089878
 20
239.03254117848277
 30
0.0
 11
232.13200246089878
 21
199.03254117848277
 31
0.0
  0
CIRCLE
  8
001
 62
               3
  5
33
 10
234.13200246089855
 20
284.0325411784828
 30
0.0
 40
7.0
  0
LINE
  8
001
 62
               3
  5
34
 10
232.13200246089878
 20
297.10923800910473
 30
0.0
 11
232.13200246089878
 21
307.0325411784828
 31
0.0
  0
LINE
  8
001
 62
               3
  5
35
 10
232.13200246089878
 20
259.23458220735017
 30
0.0
 11
232.13200246089878
 21
249.0325411784828
 31
0.0
  0
LINE
  8
001
 62
               3
  5
36
 10
234.13200246089855
 20
261.0325411784828
 30
0.0
 11
239.33250497663391
 21
261.0325411784828
 31
0.0
  0
LINE
  8
001
 62
               3
  5
37
 10
234.13200246089855
 20
295.0325411784828
 30
0.0
 11
239.33250497663391
 21
295.0325411784828
 31
0.0
  0
LINE
  8
001
 62
               3
  5
38
 10
239.33250497663403
 20
288.718133305827
 30
0.0
 11
239.33250497663403
 21
295.0325411784828
 31
0.0
  0
ARC
  8
001
 62
               3
  5
39
 10
234.13200246089855
 20
284.0325411784828
 30
0.0
 40
10.999999999999886
 50
90.0
 51
223.3417582272227
  0
ARC
  8
001
 62
               3
  5
3A
 10
234.13200246089855
 20
269.0325411784828
 30
0.0
 40
7.9999999999998863
 50
180.0
 51
270.0
  0
ARC
  8
001
 62
               3
  5
3B
 10
229.13200246089878
 20
297.10923800910473
 30
0.0
 40
3.0
 50
290.92483242763802
 51
0.0
  0
LINE
  8
001
 62
               3
  5
3C
 10
226.13200246089878
 20
269.0325411784828
 30
0.0
 11
226.13200246089878
 21
276.48270674321208
 31
0.0
  0
ARC
  8
001
 62
               3
  5
3D
 10
229.13200246089878
 20
259.23458220735017
 30
0.0
 40
3.0
 50
0.0
 51
62.964308210588051
  0
LINE
  8
001
 62
               3
  5
3E
 10
364.13200246089855
 20
199.03254117848277
 30
0.0
 11
364.13200246089855
 21
205.03254117848277
 31
0.0
  0
LINE
  8
001
 62
               3
  5
3F
 10
354.13200246089855
 20
205.03254117848277
 30
0.0
 11
354.13200246089855
 21
199.03254117848277
 31
0.0
  0
LINE
  8
001
 62
               3
  5
40
 10
364.13200246089855
 20
205.03254117848277
 30
0.0
 11
354.13200246089855
 21
205.03254117848277
 31
0.0
  0
LINE
  8
001
 62
               3
  5
41
 10
269.13200246089878
 20
216.03254117848277
 30
0.0
 11
269.13200246089878
 21
199.03254117848277
 31
0.0
  0
LINE
  8
001
  6
CENTER
  5
42
 10
404.13200246089855
 20
223.94774368358728
 30
0.0
 11
404.13200246089855
 21
195.94774368358728
 31
0.0
  0
LINE
  8
001
  6
CENTER
  5
43
 10
314.13200246089855
 20
223.94774368358739
 30
0.0
 11
314.13200246089855
 21
195.94774368358739
 31
0.0
  0
ARC
  8
001
 62
               3
  5
44
 10
331.13200246089878
 20
224.03254117848277
 30
0.0
 40
5.0
 50
180.0
 51
270.0
  0
ARC
  8
001
 62
               3
  5
45
 10
272.13200246089878
 20
216.03254117848277
 30
0.0
 40
3.0
 50
90.0
 51
180.0
  0
LINE
  8
001
 62
               3
  5
46
 10
272.13200246089878
 20
219.03254117848277
 30
0.0
 11
304.13200246089872
 21
219.03254117848277
 31
0.0
  0
LINE
  8
001
 62
               3
  5
47
 10
394.13200246089855
 20
219.03254117848277
 30
0.0
 11
324.13200246089855
 21
219.03254117848277
 31
0.0
  0
LINE
  8
001
 62
               3
  5
48
 10
304.13200246089855
 20
221.03254117848277
 30
0.0
 11
324.13200246089855
 21
221.03254117848277
 31
0.0
  0
LINE
  8
001
 62
               3
  5
49
 10
304.13200246089855
 20
221.03254117848277
 30
0.0
 11
304.13200246089855
 21
219.03254117848277
 31
0.0
  0
LINE
  8
001
 62
               3
  5
4A
 10
324.13200246089855
 20
221.03254117848277
 30
0.0
 11
324.13200246089855
 21
219.03254117848277
 31
0.0
  0
LINE
  8
001
 62
               3
  5
4B
 10
419.13200246089855
 20
221.03254117848277
 30
0.0
 11
394.13200246089855
 21
221.03254117848277
 31
0.0
  0
LINE
  8
001
 62
               3
  5
4C
 10
394.13200246089855
 20
221.03254117848277
 30
0.0
 11
394.13200246089855
 21
219.03254117848277
 31
0.0
  0
LINE
  8
001
 62
               3
  5
4D
 10
334.13200246089878
 20
199.03254117848277
 30
0.0
 11
334.13200246089878
 21
219.03254117848277
 31
0.0
  0
LINE
  8
001
 62
               3
  5
4E
 10
339.90550515279506
 20
199.03254117848277
 30
0.0
 11
339.90550515279506
 21
219.03254117848277
 31
0.0
  0
LINE
  8
001
 62
               3
  5
4F
 10
378.35849976900226
 20
199.03254117848277
 30
0.0
 11
378.35849976900226
 21
219.03254117848277
 31
0.0
  0
LINE
  8
001
 62
               3
  5
50
 10
384.13200246089855
 20
199.03254117848277
 30
0.0
 11
384.13200246089855
 21
219.03254117848277
 31
0.0
  0
LINE
  8
001
 62
               3
  5
51
 10
269.13200246089878
 20
139.13513913715067
 30
0.0
 11
269.13200246089878
 21
144.34558199913226
 31
0.0
  0
LINE
  8
001
 62
               3
  5
52
 10
269.13200246089878
 20
39.556024861113855
 30
0.0
 11
269.13200246089878
 21
34.345581999132406
 31
0.0
  0
LINE
  8
001
 62
               3
  5
53
 10
236.65848129770802
 20
114.34558199913246
 30
0.0
 11
226.1320024608986
 21
114.34558199913246
 31
0.0
  0
ARC
  8
001
 62
               3
  5
54
 10
226.13200246089878
 20
111.34558199913258
 30
0.0
 40
3.0
 50
89.999999999999972
 51
179.99999999999997
  0
ARC
  8
001
 62
               3
  5
55
 10
236.65848129770802
 20
119.34558199913246
 30
0.0
 40
5.0
 50
270.0
 51
324.76558201541883
  0
CIRCLE
  8
001
 62
               3
  5
56
 10
314.13200246089855
 20
139.34558199913224
 30
0.0
 40
5.5
  0
CIRCLE
  8
001
 62
               3
  5
57
 10
404.13200246089855
 20
139.34558199913224
 30
0.0
 40
5.5
  0
CIRCLE
  8
001
 62
               3
  5
58
 10
404.13200246089855
 20
39.345581999132378
 30
0.0
 40
5.5
  0
CIRCLE
  8
001
 62
               3
  5
59
 10
314.13200246089855
 20
39.345581999132264
 30
0.0
 40
5.5
  0
ARC
  8
001
 62
               3
  5
5A
 10
274.13200246089878
 20
144.34558199913224
 30
0.0
 40
5.0
 50
89.999999999999972
 51
179.99999999999997
  0
ARC
  8
001
 62
               3
  5
5B
 10
274.13200246089878
 20
34.345581999132406
 30
0.0
 40
5.0
 50
179.99999999999997
 51
270.0
  0
ARC
  8
001
 62
               3
  5
5C
 10
264.13200246089878
 20
39.556024861113855
 30
0.0
 40
5.0
 50
359.99999999999994
 51
73.234127027328128
  0
ARC
  8
001
 62
               3
  5
5D
 10
264.13200246089878
 20
139.13513913715067
 30
0.0
 40
5.0
 50
286.7658729726719
 51
359.99999999999994
  0
LINE
  8
001
 62
               3
  5
5E
 10
354.13200246089855
 20
94.345581999132406
 30
0.0
 11
315.79260802054523
 21
94.34558199913242
 31
0.0
  0
LINE
  8
001
 62
               3
  5
5F
 10
354.13200246089855
 20
84.345581999132406
 30
0.0
 11
315.79260802054534
 21
84.34558199913242
 31
0.0
  0
LINE
  8
001
 62
               3
  5
60
 10
376.62644896143365
 20
139.34558199913224
 30
0.0
 11
341.63755596036378
 21
139.34558199913224
 31
0.0
  0
LINE
  8
001
 62
               3
  5
61
 10
334.99802786468308
 20
147.84558199913224
 30
0.0
 11
339.03947974901041
 21
140.84558199913229
 31
0.0
  0
LINE
  8
001
 62
               3
  5
62
 10
383.26597705711401
 20
147.84558199913224
 30
0.0
 11
379.22452517278663
 21
140.84558199913224
 31
0.0
  0
ARC
  8
001
 62
               3
  5
63
 10
341.6375559603639
 20
142.34558199913224
 30
0.0
 40
3.0
 50
210.0
 51
270.0
  0
ARC
  8
001
 62
               3
  5
64
 10
376.62644896143365
 20
142.34558199913224
 30
0.0
 40
3.0
 50
270.0
 51
330.0
  0
LINE
  8
001
 62
               3
  5
65
 10
332.39995165332994
 20
149.34558199913224
 30
0.0
 11
274.13200246089878
 21
149.34558199913226
 31
0.0
  0
ARC
  8
001
 62
               3
  5
66
 10
385.86405326846761
 20
146.34558199913224
 30
0.0
 40
3.0
 50
89.999999999999972
 51
150.0
  0
ARC
  8
001
 62
               3
  5
67
 10
332.39995165332994
 20
146.34558199913224
 30
0.0
 40
3.0
 50
30.000000000000011
 51
89.999999999999972
  0
LINE
  8
001
 62
               3
  5
68
 10
376.62644896143365
 20
39.345581999132605
 30
0.0
 11
341.63755596036378
 21
39.345581999132627
 31
0.0
  0
LINE
  8
001
 62
               3
  5
69
 10
334.99802786468308
 20
30.845581999132605
 30
0.0
 11
339.03947974901047
 21
37.845581999132555
 31
0.0
  0
LINE
  8
001
 62
               3
  5
6A
 10
383.26597705711401
 20
30.845581999132605
 30
0.0
 11
379.22452517278663
 21
37.845581999132612
 31
0.0
  0
ARC
  8
001
 62
               3
  5
6B
 10
341.6375559603639
 20
36.345581999132605
 30
0.0
 40
3.0
 50
89.999999999999972
 51
149.99999999999997
  0
ARC
  8
001
 62
               3
  5
6C
 10
376.62644896143365
 20
36.345581999132605
 30
0.0
 40
3.0
 50
29.999999999999993
 51
89.999999999999972
  0
ARC
  8
001
 62
               3
  5
6D
 10
385.86405326846761
 20
32.345581999132605
 30
0.0
 40
3.0
 50
209.99999999999997
 51
270.0
  0
ARC
  8
001
 62
               3
  5
6E
 10
332.39995165332994
 20
32.345581999132548
 30
0.0
 40
3.0
 50
270.0
 51
329.99999999999994
  0
LINE
  8
001
 62
               3
  5
6F
 10
274.13200246089878
 20
29.345581999132406
 30
0.0
 11
332.39995165332994
 21
29.345581999132396
 31
0.0
  0
LINE
  8
001
 62
               3
  5
70
 10
364.13200246089855
 20
139.34558199913224
 30
0.0
 11
364.13200246089855
 21
94.345581999132435
 31
0.0
  0
LINE
  8
001
 62
               3
  5
71
 10
354.13200246089855
 20
139.34558199913224
 30
0.0
 11
354.13200246089855
 21
94.345581999132435
 31
0.0
  0
LINE
  8
001
 62
               3
  5
72
 10
354.13200246089855
 20
84.345581999132406
 30
0.0
 11
354.13200246089855
 21
39.345581999132605
 31
0.0
  0
LINE
  8
001
 62
               3
  5
73
 10
364.13200246089855
 20
84.345581999132406
 30
0.0
 11
364.13200246089855
 21
39.345581999132605
 31
0.0
  0
LINE
  8
001
 62
               3
  5
74
 10
419.13200246089855
 20
144.34558199913212
 30
0.0
 11
419.13200246089855
 21
34.345581999132207
 31
0.0
  0
LINE
  8
001
  6
CENTER
  5
75
 10
425.66408787959972
 20
89.345581999132349
 30
0.0
 11
219.90963612789074
 21
89.34558199913242
 31
0.0
  0
ARC
  8
001
 62
               3
  5
76
 10
414.13200246089855
 20
34.345581999132378
 30
0.0
 40
5.0
 50
270.0
 51
0.0
  0
ARC
  8
001
 62
               3
  5
77
 10
414.13200246089855
 20
144.34558199913212
 30
0.0
 40
5.0
 50
0.0
 51
89.999999999999972
  0
LINE
  8
001
 62
               3
  5
78
 10
419.13200246089855
 20
94.345581999132349
 30
0.0
 11
364.13200246089855
 21
94.345581999132378
 31
0.0
  0
LINE
  8
001
 62
               3
  5
79
 10
419.13200246089855
 20
84.345581999132349
 30
0.0
 11
364.13200246089855
 21
84.345581999132378
 31
0.0
  0
LINE
  8
001
 62
               3
  5
7A
 10
385.86405326846761
 20
149.34558199913224
 30
0.0
 11
414.13200246089878
 21
149.34558199913221
 31
0.0
  0
LINE
  8
001
 62
               3
  5
7B
 10
385.86405326846761
 20
29.345581999132378
 30
0.0
 11
414.13200246089878
 21
29.345581999132371
 31
0.0
  0
LINE
  8
001
 62
               3
  5
7C
 10
233.53595000018686
 20
69.345581999132321
 30
0.0
 11
226.13200246089883
 21
69.345581999132335
 31
0.0
  0
ARC
  8
001
 62
               3
  5
7D
 10
226.13200246089878
 20
72.345581999132378
 30
0.0
 40
3.0
 50
180.0
 51
269.99999999999994
  0
ARC
  8
001
 62
               3
  5
7E
 10
233.53595000018686
 20
64.345581999132321
 30
0.0
 40
5.0
 50
28.735653744905402
 51
89.999999999999972
  0
LINE
  8
001
 62
               3
  5
7F
 10
223.13200246089878
 20
111.34558199913258
 30
0.0
 11
223.13200246089878
 21
91.345581999132236
 31
0.0
  0
LINE
  8
001
 62
               3
  5
80
 10
223.13200246089878
 20
72.345581999132378
 30
0.0
 11
223.13200246089875
 21
87.345581999132236
 31
0.0
  0
ARC
  8
001
 62
               3
  5
81
 10
279.13200246089878
 20
89.345581999132236
 30
0.0
 40
47.0
 50
106.76587297267199
 51
253.23412702732819
  0
LINE
  8
001
 62
               3
  5
82
 10
232.17457493340316
 20
91.345581999132236
 30
0.0
 11
223.13200246089866
 21
91.345581999132236
 31
0.0
  0
LINE
  8
001
 62
               3
  5
83
 10
232.17457493340316
 20
87.345581999132236
 30
0.0
 11
223.13200246089866
 21
87.345581999132236
 31
0.0
  0
CIRCLE
  8
001
 62
               3
  5
84
 10
279.13200246089878
 20
89.345581999132236
 30
0.0
 40
37.0
  0
CIRCLE
  8
001
 62
               3
  5
85
 10
279.13200246089855
 20
416.33795780721039
 30
0.0
 40
37.0
  0
LINE
  8
001
 62
               3
  5
86
 10
233.53595000018686
 20
436.33795780721073
 30
0.0
 11
226.13200246089883
 21
436.33795780721073
 31
0.0
  0
LINE
  8
001
 62
               3
  5
87
 10
419.13200246089855
 20
361.33795780721073
 30
0.0
 11
419.13200246089855
 21
471.33795780721061
 31
0.0
  0
LINE
  8
001
  6
CENTER
  5
88
 10
425.66408787959972
 20
416.3379578072105
 30
0.0
 11
219.90963612789074
 21
416.33795780721039
 31
0.0
  0
ARC
  8
001
 62
               3
  5
89
 10
414.13200246089855
 20
471.3379578072105
 30
0.0
 40
5.0
 50
0.0
 51
90.0
  0
ARC
  8
001
 62
               3
  5
8A
 10
414.13200246089855
 20
361.33795780721073
 30
0.0
 40
5.0
 50
270.0
 51
0.0000000000000254
  0
LINE
  8
001
 62
               3
  5
8B
 10
385.86405326846761
 20
356.33795780721073
 30
0.0
 11
414.13200246089878
 21
356.33795780721073
 31
0.0
  0
LINE
  8
001
 62
               3
  5
8C
 10
385.86405326846761
 20
476.3379578072105
 30
0.0
 11
414.13200246089878
 21
476.3379578072105
 31
0.0
  0
LINE
  8
001
 62
               3
  5
8D
 10
389.13200246089855
 20
414.3379578072105
 30
0.0
 11
389.13200246089855
 21
418.3379578072105
 31
0.0
  0
LINE
  8
001
 62
               3
  5
8E
 10
330.16140574959104
 20
421.3379578072105
 30
0.0
 11
386.13200246089855
 21
421.3379578072105
 31
0.0
  0
LINE
  8
001
 62
               3
  5
8F
 10
330.16140574959104
 20
411.3379578072105
 30
0.0
 11
386.13200246089866
 21
411.3379578072105
 31
0.0
  0
ARC
  8
001
 62
               3
  5
90
 10
386.13200246089855
 20
418.3379578072105
 30
0.0
 40
3.0
 50
0.0
 51
89.999999999999986
  0
ARC
  8
001
 62
               3
  5
91
 10
386.13200246089855
 20
414.3379578072105
 30
0.0
 40
3.0
 50
270.0
 51
0.0
  0
LINE
  8
001
 62
               3
  5
92
 10
404.13200246089855
 20
376.3379578072105
 30
0.0
 11
419.13200246089855
 21
376.3379578072105
 31
0.0
  0
LINE
  8
001
 62
               3
  5
93
 10
404.13200246089855
 20
456.3379578072105
 30
0.0
 11
419.13200246089855
 21
456.3379578072105
 31
0.0
  0
LINE
  8
001
 62
               3
  5
94
 10
269.13200246089878
 20
366.54840066919235
 30
0.0
 11
269.13200246089878
 21
361.33795780721073
 31
0.0
  0
LINE
  8
001
 62
               3
  5
95
 10
269.13200246089878
 20
466.12751494522911
 30
0.0
 11
269.13200246089878
 21
471.33795780721056
 31
0.0
  0
LINE
  8
001
 62
               3
  5
96
 10
236.65848129770802
 20
391.3379578072105
 30
0.0
 11
226.1320024608986
 21
391.3379578072105
 31
0.0
  0
LINE
  8
001
 62
               3
  5
97
 10
241.72351841843897
 20
414.33795780721073
 30
0.0
 11
223.13200246089872
 21
414.33795780721073
 31
0.0
  0
LINE
  8
001
 62
               3
  5
98
 10
241.7235184184392
 20
418.33795780721073
 30
0.0
 11
223.13200246089855
 21
418.33795780721073
 31
0.0
  0
ARC
  8
001
 62
               3
  5
99
 10
226.13200246089878
 20
394.33795780721027
 30
0.0
 40
3.0
 50
180.00000000000003
 51
270.0
  0
ARC
  8
001
 62
               3
  5
9A
 10
226.13200246089878
 20
433.33795780721073
 30
0.0
 40
3.0
 50
90.000000000000028
 51
180.00000000000003
  0
ARC
  8
001
 62
               3
  5
9B
 10
236.65848129770802
 20
386.3379578072105
 30
0.0
 40
5.0
 50
35.234417984581164
 51
90.000000000000028
  0
CIRCLE
  8
001
 62
               3
  5
9C
 10
404.13200246089855
 20
466.3379578072105
 30
0.0
 40
5.5
  0
CIRCLE
  8
001
 62
               3
  5
9D
 10
314.13200246089855
 20
466.33795780721073
 30
0.0
 40
5.5
  0
ARC
  8
001
 62
               3
  5
9E
 10
274.13200246089878
 20
361.33795780721073
 30
0.0
 40
5.0
 50
180.00000000000003
 51
270.0
  0
ARC
  8
001
 62
               3
  5
9F
 10
274.13200246089878
 20
471.3379578072105
 30
0.0
 40
5.0
 50
90.0
 51
180.00000000000003
  0
ARC
  8
001
 62
               3
  5
A0
 10
264.13200246089878
 20
466.12751494522911
 30
0.0
 40
5.0
 50
286.76587297267184
 51
0.0
  0
ARC
  8
001
 62
               3
  5
A1
 10
264.13200246089878
 20
366.54840066919235
 30
0.0
 40
5.0
 50
0.0000000000000636
 51
73.234127027328128
  0
LINE
  8
001
 62
               3
  5
A2
 10
376.62644896143365
 20
366.33795780721073
 30
0.0
 11
341.63755596036378
 21
366.33795780721073
 31
0.0
  0
LINE
  8
001
 62
               3
  5
A3
 10
334.99802786468308
 20
357.83795780721073
 30
0.0
 11
339.03947974901041
 21
364.83795780721067
 31
0.0
  0
LINE
  8
001
 62
               3
  5
A4
 10
383.26597705711401
 20
357.83795780721073
 30
0.0
 11
379.22452517278663
 21
364.83795780721073
 31
0.0
  0
ARC
  8
001
 62
               3
  5
A5
 10
341.6375559603639
 20
363.33795780721073
 30
0.0
 40
3.0
 50
90.000000000000028
 51
150.00000000000003
  0
ARC
  8
001
 62
               3
  5
A6
 10
376.62644896143365
 20
363.33795780721073
 30
0.0
 40
3.0
 50
30.000000000000028
 51
90.000000000000014
  0
LINE
  8
001
 62
               3
  5
A7
 10
332.39995165332994
 20
356.33795780721073
 30
0.0
 11
274.13200246089878
 21
356.33795780721067
 31
0.0
  0
ARC
  8
001
 62
               3
  5
A8
 10
385.86405326846761
 20
359.33795780721073
 30
0.0
 40
3.0
 50
210.0
 51
270.0
  0
ARC
  8
001
 62
               3
  5
A9
 10
332.39995165332994
 20
359.33795780721073
 30
0.0
 40
3.0
 50
270.0
 51
330.0
  0
LINE
  8
001
 62
               3
  5
AA
 10
376.62644896143365
 20
466.33795780721027
 30
0.0
 11
341.63755596036378
 21
466.33795780721027
 31
0.0
  0
LINE
  8
001
 62
               3
  5
AB
 10
334.99802786468308
 20
474.83795780721027
 30
0.0
 11
339.03947974901047
 21
467.83795780721033
 31
0.0
  0
LINE
  8
001
 62
               3
  5
AC
 10
383.26597705711401
 20
474.83795780721027
 30
0.0
 11
379.22452517278663
 21
467.83795780721027
 31
0.0
  0
ARC
  8
001
 62
               3
  5
AD
 10
341.6375559603639
 20
469.33795780721027
 30
0.0
 40
3.0
 50
210.00000000000003
 51
270.0
  0
ARC
  8
001
 62
               3
  5
AE
 10
376.62644896143365
 20
469.33795780721027
 30
0.0
 40
3.0
 50
270.0
 51
330.00000000000006
  0
ARC
  8
001
 62
               3
  5
AF
 10
385.86405326846761
 20
473.33795780721027
 30
0.0
 40
3.0
 50
90.000000000000014
 51
150.00000000000003
  0
ARC
  8
001
 62
               3
  5
B0
 10
332.39995165332994
 20
473.33795780721027
 30
0.0
 40
3.0
 50
30.000000000000043
 51
90.0
  0
LINE
  8
001
 62
               3
  5
B1
 10
274.13200246089878
 20
476.3379578072105
 30
0.0
 11
332.39995165332994
 21
476.3379578072105
 31
0.0
  0
LINE
  8
001
 62
               3
  5
B2
 10
394.13200246089855
 20
466.3379578072105
 30
0.0
 11
394.13200246089855
 21
476.3379578072105
 31
0.0
  0
ARC
  8
001
 62
               3
  5
B3
 10
404.13200246089855
 20
466.3379578072105
 30
0.0
 40
10.0
 50
180.0
 51
270.0
  0
LINE
  8
001
 62
               3
  5
B4
 10
324.13200246089855
 20
466.3379578072105
 30
0.0
 11
324.13200246089855
 21
476.3379578072105
 31
0.0
  0
LINE
  8
001
 62
               3
  5
B5
 10
304.13200246089855
 20
466.3379578072105
 30
0.0
 11
304.13200246089855
 21
476.3379578072105
 31
0.0
  0
ARC
  8
001
 62
               3
  5
B6
 10
314.13200246089855
 20
466.3379578072105
 30
0.0
 40
10.0
 50
180.0
 51
0.0
  0
CIRCLE
  8
001
 62
               3
  5
B7
 10
404.13200246089855
 20
366.3379578072105
 30
0.0
 40
5.5
  0
CIRCLE
  8
001
 62
               3
  5
B8
 10
314.13200246089855
 20
366.3379578072105
 30
0.0
 40
5.5
  0
LINE
  8
001
 62
               3
  5
B9
 10
394.13200246089855
 20
366.3379578072105
 30
0.0
 11
394.13200246089855
 21
356.3379578072105
 31
0.0
  0
ARC
  8
001
 62
               3
  5
BA
 10
404.13200246089855
 20
366.3379578072105
 30
0.0
 40
10.0
 50
90.0
 51
180.00000000000006
  0
LINE
  8
001
 62
               3
  5
BB
 10
324.13200246089855
 20
366.33795780721073
 30
0.0
 11
324.13200246089855
 21
356.33795780721073
 31
0.0
  0
LINE
  8
001
 62
               3
  5
BC
 10
304.13200246089855
 20
366.33795780721073
 30
0.0
 11
304.13200246089855
 21
356.33795780721073
 31
0.0
  0
ARC
  8
001
 62
               3
  5
BD
 10
314.13200246089855
 20
366.33795780721073
 30
0.0
 40
10.0
 50
0.0000000000000509
 51
180.00000000000006
  0
ARC
  8
001
 62
               3
  5
BE
 10
330.16140574959104
 20
426.3379578072105
 30
0.0
 40
5.0
 50
191.08748921097049
 51
270.0
  0
ARC
  8
001
 62
               3
  5
BF
 10
330.16140574959104
 20
406.3379578072105
 30
0.0
 40
5.0
 50
89.999999999999986
 51
168.91251078902926
  0
ARC
  8
001
 62
               3
  5
C0
 10
233.53595000018686
 20
441.33795780721073
 30
0.0
 40
5.0
 50
270.0
 51
331.26434625509455
  0
LINE
  8
001
 62
               3
  5
C1
 10
223.13200246089878
 20
433.33795780721073
 30
0.0
 11
223.13200246089875
 21
418.33795780721073
 31
0.0
  0
LINE
  8
001
 62
               3
  5
C2
 10
223.13200246089878
 20
394.33795780721027
 30
0.0
 11
223.13200246089878
 21
414.33795780721061
 31
0.0
  0
LINE
  8
001
 62
               3
  5
C3
 10
241.7235184184392
 20
418.33795780721073
 30
0.0
 11
242.21605377330934
 21
418.83049316208087
 31
0.0
  0
LINE
  8
001
 62
               3
  5
C4
 10
241.72351841843897
 20
414.33795780721073
 30
0.0
 11
242.21605377330957
 21
413.84542245234013
 31
0.0
  0
LINE
  8
001
 62
               3
  5
C5
 10
106.63766943694213
 20
309.0325411784828
 30
0.0
 11
106.63766943694213
 21
249.0325411784828
 31
0.0
  0
POLYLINE
  8
001
 62
               3
  5
C6
 66
               1
 10
0.0
 20
0.0
 30
0.0
  0
VERTEX
  8
001
 62
               3
  5
C7
 10
86.042260895245136
 20
289.91893794436817
 30
0.0
  0
VERTEX
  8
001
 62
               3
  5
C8
 10
85.396406310404117
 20
289.66331505462813
 30
0.0
  0
VERTEX
  8
001
 62
               3
  5
C9
 10
84.762873334250685
 20
289.38101945998955
 30
0.0
  0
VERTEX
  8
001
 62
               3
  5
CA
 10
84.244804816372834
 20
289.10468496256181
 30
0.0
  0
VERTEX
  8
001
 62
               3
  5
CB
 10
83.746831785212265
 20
288.79251049447242
 30
0.0
  0
VERTEX
  8
001
 62
               3
  5
CC
 10
83.268253742555956
 20
288.44310063108844
 30
0.0
  0
VERTEX
  8
001
 62
               3
  5
CD
 10
82.818943037319116
 20
288.05739903054695
 30
0.0
  0
VERTEX
  8
001
 62
               3
  5
CE
 10
82.482942629536524
 20
287.71955494333884
 30
0.0
  0
VERTEX
  8
001
 62
               3
  5
CF
 10
82.172911811017542
 20
287.35760046158481
 30
0.0
  0
VERTEX
  8
001
 62
               3
  5
D0
 10
81.885581030164758
 20
286.96300965867948
 30
0.0
  0
VERTEX
  8
001
 62
               3
  5
D1
 10
81.632639521408635
 20
286.54574177470738
 30
0.0
  0
VERTEX
  8
001
 62
               3
  5
D2
 10
81.463431669457293
 20
286.20962318086083
 30
0.0
  0
VERTEX
  8
001
 62
               3
  5
D3
 10
81.317860880366197
 20
285.86259239553272
 30
0.0
  0
VERTEX
  8
001
 62
               3
  5
D4
 10
81.194583240075616
 20
285.49876785828303
 30
0.0
  0
VERTEX
  8
001
 62
               3
  5
D5
 10
81.098428159415477
 20
285.12691157701255
 30
0.0
  0
VERTEX
  8
001
 62
               3
  5
D6
 10
81.029541739671345
 20
284.74003352968083
 30
0.0
  0
VERTEX
  8
001
 62
               3
  5
D7
 10
80.990405202266146
 20
284.34892637257764
 30
0.0
  0
VERTEX
  8
001
 62
               3
  5
D8
 10
80.980820409762288
 20
283.95414915204651
 30
0.0
  0
VERTEX
  8
001
 62
               3
  5
D9
 10
81.001740037019374
 20
283.55992255836298
 30
0.0
  0
VERTEX
  8
001
 62
               3
  5
DA
 10
81.046147757192315
 20
283.21344719798759
 30
0.0
  0
VERTEX
  8
001
 62
               3
  5
DB
 10
81.114067450885415
 20
282.87077445769359
 30
0.0
  0
VERTEX
  8
001
 62
               3
  5
DC
 10
81.203149330475952
 20
282.5380046024066
 30
0.0
  0
VERTEX
  8
001
 62
               3
  5
DD
 10
81.313871029615882
 20
282.21180618955952
 30
0.0
  0
VERTEX
  8
001
 62
               3
  5
DE
 10
81.483990073100387
 20
281.81131485429677
 30
0.0
  0
VERTEX
  8
001
 62
               3
  5
DF
 10
81.685656710654825
 20
281.42562747346147
 30
0.0
  0
VERTEX
  8
001
 62
               3
  5
E0
 10
81.910348860775883
 20
281.06540953152307
 30
0.0
  0
VERTEX
  8
001
 62
               3
  5
E1
 10
82.160659572438334
 20
280.72248797589594
 30
0.0
  0
VERTEX
  8
001
 62
               3
  5
E2
 10
82.552274527421986
 20
280.271472516975
 30
0.0
  0
VERTEX
  8
001
 62
               3
  5
E3
 10
82.983973966097409
 20
279.85838571118893
 30
0.0
  0
VERTEX
  8
001
 62
               3
  5
E4
 10
83.440731524792298
 20
279.48990158786489
 30
0.0
  0
VERTEX
  8
001
 62
               3
  5
E5
 10
83.923979020213608
 20
279.15668110992277
 30
0.0
  0
VERTEX
  8
001
 62
               3
  5
E6
 10
84.429333104125774
 20
278.85664894097022
 30
0.0
  0
VERTEX
  8
001
 62
               3
  5
E7
 10
84.953368556483667
 20
278.59151450009557
 30
0.0
  0
VERTEX
  8
001
 62
               3
  5
E8
 10
85.493725953624406
 20
278.35954853764275
 30
0.0
  0
VERTEX
  8
001
 62
               3
  5
E9
 10
86.042260895245136
 20
278.14614441259653
 30
0.0
  0
SEQEND
  8
001
  5
EA
  0
LINE
  8
001
 62
               3
  5
EB
 10
110.63766943694213
 20
249.0325411784828
 30
0.0
 11
110.63766943694213
 21
309.0325411784828
 31
0.0
  0
LINE
  8
001
 62
               3
  5
EC
 10
91.637669436942133
 20
295.0325411784828
 30
0.0
 11
106.63766943694213
 21
295.0325411784828
 31
0.0
  0
LINE
  8
001
 62
               3
  5
ED
 10
110.63766943694213
 20
295.0325411784828
 30
0.0
 11
130.63766943694236
 21
295.0325411784828
 31
0.0
  0
ARC
  8
001
 62
               3
  5
EE
 10
91.637669436942133
 20
292.0325411784828
 30
0.0
 40
2.9999999999999964
 50
90.0
 51
180.0
  0
ARC
  8
001
 62
               3
  5
EF
 10
130.63766943694236
 20
292.0325411784828
 30
0.0
 40
2.9999999999999964
 50
0.0
 51
90.0
  0
LINE
  8
001
 62
               3
  5
F0
 10
130.63766943694236
 20
261.03254117848292
 30
0.0
 11
110.63766943694213
 21
261.03254117848292
 31
0.0
  0
LINE
  8
001
 62
               3
  5
F1
 10
91.637669436942133
 20
261.03254117848292
 30
0.0
 11
106.63766943694213
 21
261.03254117848292
 31
0.0
  0
LINE
  8
001
 62
               3
  5
F2
 10
133.63766943694236
 20
278.01450728879468
 30
0.0
 11
133.63766943694236
 21
277.03254117848286
 31
0.0
  0
LINE
  8
001
 62
               3
  5
F3
 10
133.63766943694236
 20
290.05057506817104
 30
0.0
 11
133.63766943694236
 21
291.03254117848286
 31
0.0
  0
LINE
  8
001
 62
               3
  5
F4
 10
88.637669436942133
 20
280.07841441317044
 30
0.0
 11
88.637669436942133
 21
280.03254117848292
 31
0.0
  0
LINE
  8
001
 62
               3
  5
F5
 10
88.637669436942133
 20
287.98666794379528
 30
0.0
 11
88.637669436942133
 21
288.0325411784828
 31
0.0
  0
LINE
  8
001
 62
               3
  5
F6
 10
106.63766943694213
 20
249.0325411784828
 30
0.0
 11
63.471310274397354
 21
249.0325411784828
 31
0.0
  0
POLYLINE
  8
001
 62
               3
  5
F7
 66
               1
 10
0.0
 20
0.0
 30
0.0
  0
VERTEX
  8
001
 62
               3
  5
F8
 10
63.47131027439741
 20
249.0325411784828
 30
0.0
  0
VERTEX
  8
001
 62
               3
  5
F9
 10
63.319372693003238
 20
248.95630028455071
 30
0.0
  0
VERTEX
  8
001
 62
               3
  5
FA
 10
63.191703717632379
 20
248.85597956541469
 30
0.0
  0
VERTEX
  8
001
 62
               3
  5
FB
 10
63.122339539033284
 20
248.7533387637622
 30
0.0
  0
VERTEX
  8
001
 62
               3
  5
FC
 10
63.069450785942536
 20
248.63732410741579
 30
0.0
  0
VERTEX
  8
001
 62
               3
  5
FD
 10
63.012091840356113
 20
248.48820697768821
 30
0.0
  0
VERTEX
  8
001
 62
               3
  5
FE
 10
62.962571230693982
 20
248.33837990290388
 30
0.0
  0
VERTEX
  8
001
 62
               3
  5
FF
 10
62.868490871506125
 20
247.95060595286446
 30
0.0
  0
VERTEX
  8
001
 62
               3
  5
100
 10
62.806003535867546
 20
247.55383775407671
 30
0.0
  0
VERTEX
  8
001
 62
               3
  5
101
 10
62.755382017917128
 20
247.08330372248241
 30
0.0
  0
VERTEX
  8
001
 62
               3
  5
102
 10
62.726161180236659
 20
246.61208528013421
 30
0.0
  0
VERTEX
  8
001
 62
               3
  5
103
 10
62.718014620618774
 20
246.32245588000873
 30
0.0
  0
VERTEX
  8
001
 62
               3
  5
104
 10
62.713819424122136
 20
246.0325411784828
 30
0.0
  0
SEQEND
  8
001
  5
105
  0
LINE
  8
001
 62
               3
  5
106
 10
62.713819424122107
 20
246.0325411784828
 30
0.0
 11
62.713819424122107
 21
242.0325411784828
 31
0.0
  0
POLYLINE
  8
001
 62
               3
  5
107
 66
               1
 10
0.0
 20
0.0
 30
0.0
  0
VERTEX
  8
001
 62
               3
  5
108
 10
62.713819424122107
 20
242.03254117848292
 30
0.0
  0
VERTEX
  8
001
 62
               3
  5
109
 10
62.725724159452575
 20
241.54577359539317
 30
0.0
  0
VERTEX
  8
001
 62
               3
  5
10A
 10
62.749554158505418
 20
241.05794292619353
 30
0.0
  0
VERTEX
  8
001
 62
               3
  5
10B
 10
62.790177876380014
 20
240.62205565129494
 30
0.0
  0
VERTEX
  8
001
 62
               3
  5
10C
 10
62.855523463665975
 20
240.1933291401248
 30
0.0
  0
VERTEX
  8
001
 62
               3
  5
10D
 10
62.929121813372348
 20
239.86223445095195
 30
0.0
  0
VERTEX
  8
001
 62
               3
  5
10E
 10
63.028754713291676
 20
239.52691964387301
 30
0.0
  0
VERTEX
  8
001
 62
               3
  5
10F
 10
63.120112509222423
 20
239.30154310142581
 30
0.0
  0
VERTEX
  8
001
 62
               3
  5
110
 10
63.263894199617937
 20
239.12614639911288
 30
0.0
  0
VERTEX
  8
001
 62
               3
  5
111
 10
63.362218452422361
 20
239.07284650878626
 30
0.0
  0
VERTEX
  8
001
 62
               3
  5
112
 10
63.47131027439741
 20
239.03254117848289
 30
0.0
  0
SEQEND
  8
001
  5
113
  0
LINE
  8
001
 62
               3
  5
114
 10
63.47131027439741
 20
239.03254117848277
 30
0.0
 11
153.80402859948714
 21
239.03254117848277
 31
0.0
  0
POLYLINE
  8
001
 62
               3
  5
115
 66
               1
 10
0.0
 20
0.0
 30
0.0
  0
VERTEX
  8
001
 62
               3
  5
116
 10
153.80402859948708
 20
239.03254117848277
 30
0.0
  0
VERTEX
  8
001
 62
               3
  5
117
 10
153.95596618088126
 20
239.10878207241487
 30
0.0
  0
VERTEX
  8
001
 62
               3
  5
118
 10
154.08363515625211
 20
239.20910279155089
 30
0.0
  0
VERTEX
  8
001
 62
               3
  5
119
 10
154.15299933485122
 20
239.3117435932034
 30
0.0
  0
VERTEX
  8
001
 62
               3
  5
11A
 10
154.20588808794196
 20
239.42775824954984
 30
0.0
  0
VERTEX
  8
001
 62
               3
  5
11B
 10
154.26324703352839
 20
239.57687537927737
 30
0.0
  0
VERTEX
  8
001
 62
               3
  5
11C
 10
154.31276764319051
 20
239.72670245406169
 30
0.0
  0
VERTEX
  8
001
 62
               3
  5
11D
 10
154.40684800237835
 20
240.11447640410111
 30
0.0
  0
VERTEX
  8
001
 62
               3
  5
11E
 10
154.46933533801695
 20
240.51124460288884
 30
0.0
  0
VERTEX
  8
001
 62
               3
  5
11F
 10
154.51995685596737
 20
240.98177863448313
 30
0.0
  0
VERTEX
  8
001
 62
               3
  5
120
 10
154.54917769364783
 20
241.45299707683134
 30
0.0
  0
VERTEX
  8
001
 62
               3
  5
121
 10
154.5573242532657
 20
241.7426264769569
 30
0.0
  0
VERTEX
  8
001
 62
               3
  5
122
 10
154.56151944976236
 20
242.0325411784828
 30
0.0
  0
SEQEND
  8
001
  5
123
  0
LINE
  8
001
 62
               3
  5
124
 10
154.5615194497625
 20
242.03254117848292
 30
0.0
 11
154.5615194497625
 21
246.03254117848292
 31
0.0
  0
POLYLINE
  8
001
 62
               3
  5
125
 66
               1
 10
0.0
 20
0.0
 30
0.0
  0
VERTEX
  8
001
 62
               3
  5
126
 10
154.56151944976227
 20
246.0325411784828
 30
0.0
  0
VERTEX
  8
001
 62
               3
  5
127
 10
154.54961471443181
 20
246.51930876157252
 30
0.0
  0
VERTEX
  8
001
 62
               3
  5
128
 10
154.52578471537899
 20
247.00713943077218
 30
0.0
  0
VERTEX
  8
001
 62
               3
  5
129
 10
154.48516099750438
 20
247.44302670567072
 30
0.0
  0
VERTEX
  8
001
 62
               3
  5
12A
 10
154.4198154102184
 20
247.87175321684086
 30
0.0
  0
VERTEX
  8
001
 62
               3
  5
12B
 10
154.34621706051203
 20
248.20284790601374
 30
0.0
  0
VERTEX
  8
001
 62
               3
  5
12C
 10
154.24658416059273
 20
248.53816271309267
 30
0.0
  0
VERTEX
  8
001
 62
               3
  5
12D
 10
154.15522636466198
 20
248.76353925553994
 30
0.0
  0
VERTEX
  8
001
 62
               3
  5
12E
 10
154.01144467426647
 20
248.93893595785283
 30
0.0
  0
VERTEX
  8
001
 62
               3
  5
12F
 10
153.91312042146205
 20
248.99223584817946
 30
0.0
  0
VERTEX
  8
001
 62
               3
  5
130
 10
153.804028599487
 20
249.03254117848283
 30
0.0
  0
SEQEND
  8
001
  5
131
  0
LINE
  8
001
 62
               3
  5
132
 10
153.80402859948708
 20
249.0325411784828
 30
0.0
 11
110.63766943694213
 21
249.0325411784828
 31
0.0
  0
POLYLINE
  8
001
 62
               3
  5
133
 66
               1
 10
0.0
 20
0.0
 30
0.0
  0
VERTEX
  8
001
 62
               3
  5
134
 10
144.260695698056
 20
246.0325411784828
 30
0.0
  0
VERTEX
  8
001
 62
               3
  5
135
 10
144.24597212728204
 20
246.51403798994622
 30
0.0
  0
VERTEX
  8
001
 62
               3
  5
136
 10
144.21573434694349
 20
246.9956636441438
 30
0.0
  0
VERTEX
  8
001
 62
               3
  5
137
 10
144.16385379969998
 20
247.42649438343193
 30
0.0
  0
VERTEX
  8
001
 62
               3
  5
138
 10
144.08284219194786
 20
247.84999034422273
 30
0.0
  0
VERTEX
  8
001
 62
               3
  5
139
 10
143.99148117267546
 20
248.1833931751043
 30
0.0
  0
VERTEX
  8
001
 62
               3
  5
13A
 10
143.86547825889241
 20
248.51379940683123
 30
0.0
  0
VERTEX
  8
001
 62
               3
  5
13B
 10
143.74141256256888
 20
248.74625442962324
 30
0.0
  0
VERTEX
  8
001
 62
               3
  5
13C
 10
143.56723750125991
 20
248.9248722075113
 30
0.0
  0
VERTEX
  8
001
 62
               3
  5
13D
 10
143.42986477350991
 20
248.98878681994074
 30
0.0
  0
VERTEX
  8
001
 62
               3
  5
13E
 10
143.27868558831977
 20
249.0325411784828
 30
0.0
  0
SEQEND
  8
001
  5
13F
  0
LINE
  8
001
 62
               3
  5
140
 10
144.26069569805622
 20
242.03254117848292
 30
0.0
 11
144.26069569805622
 21
246.03254117848292
 31
0.0
  0
POLYLINE
  8
001
 62
               3
  5
141
 66
               1
 10
0.0
 20
0.0
 30
0.0
  0
VERTEX
  8
001
 62
               3
  5
142
 10
143.27868558831983
 20
239.03254117848277
 30
0.0
  0
VERTEX
  8
001
 62
               3
  5
143
 10
143.37651154287653
 20
239.0493706505664
 30
0.0
  0
VERTEX
  8
001
 62
               3
  5
144
 10
143.46939938018929
 20
239.07827486660591
 30
0.0
  0
VERTEX
  8
001
 62
               3
  5
145
 10
143.56454323594926
 20
239.13659046406525
 30
0.0
  0
VERTEX
  8
001
 62
               3
  5
146
 10
143.64750232740749
 20
239.21443188569114
 30
0.0
  0
VERTEX
  8
001
 62
               3
  5
147
 10
143.73505126560977
 20
239.32354815462159
 30
0.0
  0
VERTEX
  8
001
 62
               3
  5
148
 10
143.8087363709393
 20
239.44138853835406
 30
0.0
  0
VERTEX
  8
001
 62
               3
  5
149
 10
143.88520278334906
 20
239.59434110571823
 30
0.0
  0
VERTEX
  8
001
 62
               3
  5
14A
 10
143.94929555726415
 20
239.75325885052214
 30
0.0
  0
VERTEX
  8
001
 62
               3
  5
14B
 10
144.01039936343153
 20
239.93805881008475
 30
0.0
  0
VERTEX
  8
001
 62
               3
  5
14C
 10
144.06142593474303
 20
240.12576610132967
 30
0.0
  0
VERTEX
  8
001
 62
               3
  5
14D
 10
144.10985510443999
 20
240.34163457421622
 30
0.0
  0
VERTEX
  8
001
 62
               3
  5
14E
 10
144.14988211858395
 20
240.55929128780068
 30
0.0
  0
VERTEX
  8
001
 62
               3
  5
14F
 10
144.21299707447849
 20
241.03145851005922
 30
0.0
  0
VERTEX
  8
001
 62
               3
  5
150
 10
144.24761818869072
 20
241.50655854788695
 30
0.0
  0
VERTEX
  8
001
 62
               3
  5
151
 10
144.25611871272787
 20
241.76950504910718
 30
0.0
  0
VERTEX
  8
001
 62
               3
  5
152
 10
144.26069569805603
 20
242.03254117848283
 30
0.0
  0
SEQEND
  8
001
  5
153
  0
POLYLINE
  8
001
 62
               3
  5
154
 66
               1
 10
0.0
 20
0.0
 30
0.0
  0
VERTEX
  8
001
 62
               3
  5
155
 10
73.014643175828496
 20
242.03254117848292
 30
0.0
  0
VERTEX
  8
001
 62
               3
  5
156
 10
73.029366746602435
 20
241.5510443670195
 30
0.0
  0
VERTEX
  8
001
 62
               3
  5
157
 10
73.059604526940973
 20
241.06941871282191
 30
0.0
  0
VERTEX
  8
001
 62
               3
  5
158
 10
73.111485074184472
 20
240.63858797353379
 30
0.0
  0
VERTEX
  8
001
 62
               3
  5
159
 10
73.192496681936603
 20
240.21509201274299
 30
0.0
  0
VERTEX
  8
001
 62
               3
  5
15A
 10
73.283857701209016
 20
239.88168918186139
 30
0.0
  0
VERTEX
  8
001
 62
               3
  5
15B
 10
73.409860614992056
 20
239.55128295013446
 30
0.0
  0
VERTEX
  8
001
 62
               3
  5
15C
 10
73.533926311315582
 20
239.31882792734245
 30
0.0
  0
VERTEX
  8
001
 62
               3
  5
15D
 10
73.708101372624554
 20
239.14021014945439
 30
0.0
  0
VERTEX
  8
001
 62
               3
  5
15E
 10
73.84547410037456
 20
239.07629553702498
 30
0.0
  0
VERTEX
  8
001
 62
               3
  5
15F
 10
73.99665328556469
 20
239.03254117848292
 30
0.0
  0
SEQEND
  8
001
  5
160
  0
LINE
  8
001
 62
               3
  5
161
 10
73.014643175828496
 20
246.0325411784828
 30
0.0
 11
73.014643175828496
 21
242.0325411784828
 31
0.0
  0
POLYLINE
  8
001
 62
               3
  5
162
 66
               1
 10
0.0
 20
0.0
 30
0.0
  0
VERTEX
  8
001
 62
               3
  5
163
 10
73.996653285564662
 20
249.0325411784828
 30
0.0
  0
VERTEX
  8
001
 62
               3
  5
164
 10
73.898827331007951
 20
249.01571170639917
 30
0.0
  0
VERTEX
  8
001
 62
               3
  5
165
 10
73.805939493695206
 20
248.98680749035967
 30
0.0
  0
VERTEX
  8
001
 62
               3
  5
166
 10
73.710795637935234
 20
248.92849189290035
 30
0.0
  0
VERTEX
  8
001
 62
               3
  5
167
 10
73.627836546476999
 20
248.85065047127449
 30
0.0
  0
VERTEX
  8
001
 62
               3
  5
168
 10
73.540287608274724
 20
248.74153420234398
 30
0.0
  0
VERTEX
  8
001
 62
               3
  5
169
 10
73.466602502945193
 20
248.62369381861154
 30
0.0
  0
VERTEX
  8
001
 62
               3
  5
16A
 10
73.390136090535449
 20
248.47074125124738
 30
0.0
  0
VERTEX
  8
001
 62
               3
  5
16B
 10
73.326043316620343
 20
248.31182350644343
 30
0.0
  0
VERTEX
  8
001
 62
               3
  5
16C
 10
73.264939510452962
 20
248.12702354688082
 30
0.0
  0
VERTEX
  8
001
 62
               3
  5
16D
 10
73.213912939141437
 20
247.93931625563587
 30
0.0
  0
VERTEX
  8
001
 62
               3
  5
16E
 10
73.165483769444478
 20
247.72344778274936
 30
0.0
  0
VERTEX
  8
001
 62
               3
  5
16F
 10
73.125456755300519
 20
247.50579106916493
 30
0.0
  0
VERTEX
  8
001
 62
               3
  5
170
 10
73.062341799405971
 20
247.03362384690638
 30
0.0
  0
VERTEX
  8
001
 62
               3
  5
171
 10
73.027720685193742
 20
246.55852380907865
 30
0.0
  0
VERTEX
  8
001
 62
               3
  5
172
 10
73.019220161156611
 20
246.29557730785842
 30
0.0
  0
VERTEX
  8
001
 62
               3
  5
173
 10
73.014643175828439
 20
246.03254117848277
 30
0.0
  0
SEQEND
  8
001
  5
174
  0
ARC
  8
001
 62
               3
  5
175
 10
91.637669436942133
 20
264.03254117848292
 30
0.0
 40
3.0
 50
180.0
 51
270.0
  0
ARC
  8
001
 62
               3
  5
176
 10
130.63766943694236
 20
264.03254117848292
 30
0.0
 40
3.0
 50
270.0
 51
0.0
  0
LINE
  8
001
 62
               3
  5
177
 10
131.93802997489729
 20
276.48270674321179
 30
0.0
 11
110.63841474139898
 21
276.48270674321179
 31
0.0
  0
LINE
  8
001
 62
               3
  5
178
 10
106.63841474139906
 20
276.48270674321179
 30
0.0
 11
90.099932322940276
 21
276.48270674321179
 31
0.0
  0
LINE
  8
001
 62
               3
  5
179
 10
63.638414741398947
 20
309.0325411784828
 30
0.0
 11
153.63841474139895
 21
309.03254117848275
 31
0.0
  0
LINE
  8
001
 62
               3
  5
17A
 10
61.638414741398833
 20
224.032541178483
 30
0.0
 11
61.638414741398861
 21
307.0325411784828
 31
0.0
  0
LINE
  8
001
 62
               3
  5
17B
 10
155.63841474139895
 20
307.03254117848269
 30
0.0
 11
153.63841474139889
 21
309.03254117848269
 31
0.0
  0
LINE
  8
001
 62
               3
  5
17C
 10
63.638414741398947
 20
309.0325411784828
 30
0.0
 11
61.638414741398947
 21
307.0325411784828
 31
0.0
  0
LINE
  8
001
 62
               3
  5
17D
 10
155.63841474139895
 20
224.032541178483
 30
0.0
 11
155.63841474139895
 21
307.0325411784828
 31
0.0
  0
LINE
  8
001
  6
CENTER
  5
17E
 10
108.63841474139906
 20
311.75185759111457
 30
0.0
 11
108.63841474139906
 21
195.35906119497474
 31
0.0
  0
LINE
  8
001
  6
CENTER
  5
17F
 10
58.638414741398947
 20
223.9477436835875
 30
0.0
 11
58.638414741398911
 21
195.9477436835875
 31
0.0
  0
ARC
  8
001
 62
               3
  5
180
 10
51.638414741398947
 20
216.032541178483
 30
0.0
 40
3.0
 50
89.999999999999972
 51
179.99999999999997
  0
ARC
  8
001
 62
               3
  5
181
 10
56.638414741398833
 20
224.032541178483
 30
0.0
 40
5.0
 50
306.86989764584399
 51
0.0
  0
ARC
  8
001
 62
               3
  5
182
 10
56.638414741398833
 20
224.032541178483
 30
0.0
 40
5.0
 50
269.99999999999994
 51
306.86989764584399
  0
LINE
  8
001
  6
CENTER
  5
183
 10
158.63841474139895
 20
223.9477436835875
 30
0.0
 11
158.63841474139898
 21
195.9477436835875
 31
0.0
  0
ARC
  8
001
 62
               3
  5
184
 10
165.63841474139895
 20
216.032541178483
 30
0.0
 40
3.0
 50
0.0
 51
90.0
  0
ARC
  8
001
 62
               3
  5
185
 10
160.63841474139906
 20
224.032541178483
 30
0.0
 40
5.0
 50
179.99999999999997
 51
233.13010235415598
  0
ARC
  8
001
 62
               3
  5
186
 10
160.63841474139906
 20
224.032541178483
 30
0.0
 40
5.0
 50
233.13010235415598
 51
270.0
  0
LINE
  8
001
 62
               3
  5
187
 10
48.638414741398947
 20
199.032541178483
 30
0.0
 11
168.63841474139895
 21
199.03254117848292
 31
0.0
  0
LINE
  8
001
 62
               3
  5
188
 10
165.63841474139895
 20
219.032541178483
 30
0.0
 11
160.63841474139906
 21
219.032541178483
 31
0.0
  0
LINE
  8
001
 62
               3
  5
189
 10
51.638414741398947
 20
219.032541178483
 30
0.0
 11
56.638414741398833
 21
219.032541178483
 31
0.0
  0
LINE
  8
001
 62
               3
  5
18A
 10
153.63976915784349
 20
216.032541178483
 30
0.0
 11
153.63976915784349
 21
199.032541178483
 31
0.0
  0
LINE
  8
001
 62
               3
  5
18B
 10
63.635569716041005
 20
216.032541178483
 30
0.0
 11
63.635569716041005
 21
199.032541178483
 31
0.0
  0
LINE
  8
001
 62
               3
  5
18C
 10
168.63841474139895
 20
221.032541178483
 30
0.0
 11
156.63841474139906
 21
221.032541178483
 31
0.0
  0
LINE
  8
001
 62
               3
  5
18D
 10
168.63841474139895
 20
199.032541178483
 30
0.0
 11
168.63841474139895
 21
221.032541178483
 31
0.0
  0
LINE
  8
001
 62
               3
  5
18E
 10
48.638414741398947
 20
199.032541178483
 30
0.0
 11
48.638414741398954
 21
221.032541178483
 31
0.0
  0
LINE
  8
001
 62
               3
  5
18F
 10
48.638414741398947
 20
221.032541178483
 30
0.0
 11
60.638414741398833
 21
221.032541178483
 31
0.0
  0
LINE
  8
001
 62
               3
  5
190
 10
354.13200246089855
 20
199.03254117848277
 30
0.0
 11
232.13200246089878
 21
199.03254117848277
 31
0.0
  0
LINE
  8
001
  6
CENTER
  5
191
 10
396.63200246089855
 20
466.3379578072105
 30
0.0
 11
411.63200246089855
 21
466.3379578072105
 31
0.0
  0
LINE
  8
001
  6
CENTER
  5
192
 10
404.13200246089855
 20
458.8379578072105
 30
0.0
 11
404.13200246089855
 21
473.8379578072105
 31
0.0
  0
LINE
  8
001
  6
CENTER
  5
193
 10
306.63200246089855
 20
466.33795780721073
 30
0.0
 11
321.63200246089855
 21
466.33795780721073
 31
0.0
  0
LINE
  8
001
  6
CENTER
  5
194
 10
314.13200246089855
 20
458.83795780721073
 30
0.0
 11
314.13200246089855
 21
473.83795780721073
 31
0.0
  0
LINE
  8
001
  6
CENTER
  5
195
 10
306.63200246089855
 20
366.3379578072105
 30
0.0
 11
321.63200246089855
 21
366.3379578072105
 31
0.0
  0
LINE
  8
001
  6
CENTER
  5
196
 10
314.13200246089855
 20
358.8379578072105
 30
0.0
 11
314.13200246089855
 21
373.8379578072105
 31
0.0
  0
LINE
  8
001
  6
CENTER
  5
197
 10
396.63200246089855
 20
366.3379578072105
 30
0.0
 11
411.63200246089855
 21
366.3379578072105
 31
0.0
  0
LINE
  8
001
  6
CENTER
  5
198
 10
404.13200246089855
 20
358.8379578072105
 30
0.0
 11
404.13200246089855
 21
373.8379578072105
 31
0.0
  0
LINE
  8
001
  6
CENTER
  5
199
 10
396.63200246089855
 20
139.34558199913224
 30
0.0
 11
411.63200246089855
 21
139.34558199913224
 31
0.0
  0
LINE
  8
001
  6
CENTER
  5
19A
 10
404.13200246089855
 20
131.84558199913224
 30
0.0
 11
404.13200246089855
 21
146.84558199913224
 31
0.0
  0
LINE
  8
001
  6
CENTER
  5
19B
 10
306.63200246089855
 20
139.34558199913224
 30
0.0
 11
321.63200246089855
 21
139.34558199913224
 31
0.0
  0
LINE
  8
001
  6
CENTER
  5
19C
 10
314.13200246089855
 20
131.84558199913224
 30
0.0
 11
314.13200246089855
 21
146.84558199913224
 31
0.0
  0
LINE
  8
001
  6
CENTER
  5
19D
 10
306.63200246089855
 20
39.345581999132264
 30
0.0
 11
321.63200246089855
 21
39.345581999132264
 31
0.0
  0
LINE
  8
001
  6
CENTER
  5
19E
 10
314.13200246089855
 20
31.845581999132264
 30
0.0
 11
314.13200246089855
 21
46.845581999132264
 31
0.0
  0
LINE
  8
001
  6
CENTER
  5
19F
 10
396.63200246089855
 20
39.345581999132378
 30
0.0
 11
411.63200246089855
 21
39.345581999132378
 31
0.0
  0
LINE
  8
001
  6
CENTER
  5
1A0
 10
404.13200246089855
 20
31.845581999132378
 30
0.0
 11
404.13200246089855
 21
46.845581999132378
 31
0.0
  0
LINE
  8
001
 62
               3
  5
1A1
 10
231.16153532591784
 20
282.31754117848277
 30
0.0
 11
231.16153532591784
 21
285.74754117848278
 31
0.0
  0
LINE
  8
001
 62
               3
  5
1A2
 10
237.10246959587926
 20
285.74754117848272
 30
0.0
 11
237.10246959587926
 21
282.31754117848271
 31
0.0
  0
LINE
  8
001
 62
               3
  5
1A3
 10
237.10246959587926
 20
282.31754117848277
 30
0.0
 11
234.13200246089863
 21
280.6025411784828
 31
0.0
  0
LINE
  8
001
 62
               3
  5
1A4
 10
234.13200246089855
 20
287.46254117848275
 30
0.0
 11
231.16153532591792
 21
285.74754117848278
 31
0.0
  0
LINE
  8
001
 62
               3
  5
1A5
 10
234.13200246089855
 20
287.46254117848275
 30
0.0
 11
237.10246959587917
 21
285.74754117848278
 31
0.0
  0
LINE
  8
001
 62
               3
  5
1A6
 10
234.13200246089855
 20
280.60254117848274
 30
0.0
 11
231.16153532591792
 21
282.31754117848271
 31
0.0
  0
CIRCLE
  8
001
 62
               3
  5
1A7
 10
234.13200246089855
 20
284.0325411784828
 30
0.0
 40
6.5
  0
CIRCLE
  8
001
 62
               3
  5
1A8
 10
234.13200246089855
 20
284.0325411784828
 30
0.0
 40
3.4299999999999988
  0
LINE
  8
001
 62
               3
  5
1A9
 10
231.16153532591784
 20
267.31754117848277
 30
0.0
 11
231.16153532591784
 21
270.74754117848278
 31
0.0
  0
LINE
  8
001
 62
               3
  5
1AA
 10
237.10246959587926
 20
270.74754117848272
 30
0.0
 11
237.10246959587926
 21
267.31754117848271
 31
0.0
  0
LINE
  8
001
 62
               3
  5
1AB
 10
237.10246959587926
 20
267.31754117848277
 30
0.0
 11
234.13200246089863
 21
265.6025411784828
 31
0.0
  0
LINE
  8
001
 62
               3
  5
1AC
 10
234.13200246089855
 20
272.46254117848275
 30
0.0
 11
231.16153532591792
 21
270.74754117848278
 31
0.0
  0
LINE
  8
001
 62
               3
  5
1AD
 10
234.13200246089855
 20
272.46254117848275
 30
0.0
 11
237.10246959587917
 21
270.74754117848278
 31
0.0
  0
LINE
  8
001
 62
               3
  5
1AE
 10
234.13200246089855
 20
265.60254117848274
 30
0.0
 11
231.16153532591792
 21
267.31754117848271
 31
0.0
  0
CIRCLE
  8
001
 62
               3
  5
1AF
 10
234.13200246089855
 20
269.0325411784828
 30
0.0
 40
6.5
  0
CIRCLE
  8
001
 62
               3
  5
1B0
 10
234.13200246089855
 20
269.0325411784828
 30
0.0
 40
3.4299999999999988
  0
LINE
  8
001
 62
               3
  5
1B1
 10
239.33250497663403
 20
261.0325411784828
 30
0.0
 11
239.33250497663403
 21
265.13321128940839
 31
0.0
  0
LINE
  8
001
 62
               3
  5
1B2
 10
239.33250497663403
 20
272.93187106755715
 30
0.0
 11
239.33250497663403
 21
279.34694905113855
 31
0.0
  0
LINE
  8
001
 62
               3
  5
1B3
 10
137.43766943694209
 20
262.53254117848257
 30
0.0
 11
143.83766943694201
 21
262.53254117848269
 31
0.0
  0
LINE
  8
001
 62
               3
  5
1B4
 10
137.43766943694209
 20
275.53254117848257
 30
0.0
 11
143.83766943694201
 21
275.53254117848246
 31
0.0
  0
LINE
  8
001
 62
               3
  5
1B5
 10
144.63766943694202
 20
274.73254117848262
 30
0.0
 11
144.63766943694202
 21
263.33254117848253
 31
0.0
  0
LINE
  8
001
 62
               3
  5
1B6
 10
136.63766943694213
 20
274.73254117848251
 30
0.0
 11
136.63766943694213
 21
263.33254117848264
 31
0.0
  0
LINE
  8
001
 62
               3
  5
1B7
 10
106.63766943694213
 20
266.28254117848246
 30
0.0
 11
106.63766943694213
 21
271.78254117848269
 31
0.0
  0
LINE
  8
001
 62
               3
  5
1B8
 10
107.88766943694213
 20
273.03254117848257
 30
0.0
 11
106.63766943694213
 21
271.78254117848269
 31
0.0
  0
LINE
  8
001
 62
               3
  5
1B9
 10
106.63766943694213
 20
266.28254117848246
 30
0.0
 11
107.88766943694213
 21
265.03254117848257
 31
0.0
  0
LINE
  8
001
 62
               3
  5
1BA
 10
107.88766943694213
 20
273.03254117848257
 30
0.0
 11
107.88766943694213
 21
265.03254117848257
 31
0.0
  0
ARC
  8
001
 62
               3
  5
1BB
 10
143.83766943694206
 20
263.33254117848253
 30
0.0
 40
0.8
 50
270.0
 51
0.0
  0
ARC
  8
001
 62
               3
  5
1BC
 10
143.83766943694206
 20
274.73254117848262
 30
0.0
 40
0.8
 50
0.0
 51
90.0
  0
ARC
  8
001
 62
               3
  5
1BD
 10
137.43766943694209
 20
274.73254117848251
 30
0.0
 40
0.8
 50
90.0
 51
180.0
  0
ARC
  8
001
 62
               3
  5
1BE
 10
137.43766943694209
 20
263.33254117848253
 30
0.0
 40
0.8
 50
180.0
 51
270.0
  0
LINE
  8
001
 62
               3
  5
1BF
 10
133.93766943694231
 20
277.53254117848257
 30
0.0
 11
140.33766943694224
 21
277.53254117848269
 31
0.0
  0
LINE
  8
001
 62
               3
  5
1C0
 10
133.93766943694243
 20
290.53254117848257
 30
0.0
 11
140.33766943694235
 21
290.53254117848246
 31
0.0
  0
LINE
  8
001
 62
               3
  5
1C1
 10
141.13766943694225
 20
289.73254117848262
 30
0.0
 11
141.13766943694225
 21
278.33254117848253
 31
0.0
  0
ARC
  8
001
 62
               3
  5
1C2
 10
140.33766943694229
 20
278.33254117848253
 30
0.0
 40
0.8
 50
270.0
 51
0.0
  0
ARC
  8
001
 62
               3
  5
1C3
 10
140.33766943694229
 20
289.73254117848262
 30
0.0
 40
0.8
 50
0.0
 51
90.0
  0
LINE
  8
001
 62
               3
  5
1C4
 10
227.63200246089855
 20
391.03795780721055
 30
0.0
 11
227.63200246089866
 21
384.63795780721063
 31
0.0
  0
LINE
  8
001
 62
               3
  5
1C5
 10
239.83200246089837
 20
383.83795780721061
 30
0.0
 11
228.43200246089827
 21
383.83795780721061
 31
0.0
  0
ARC
  8
001
 62
               3
  5
1C6
 10
228.43200246089873
 20
384.63795780721057
 30
0.0
 40
0.8
 50
180.0
 51
270.0
  0
ARC
  8
001
 62
               3
  5
1C7
 10
239.83200246089837
 20
384.63795780721057
 30
0.0
 40
0.8
 50
270.0
 51
0.0
  0
LINE
  8
001
 62
               3
  5
1C8
 10
227.63200246089832
 20
60.545581999132395
 30
0.0
 11
227.63200246089843
 21
54.145581999132474
 31
0.0
  0
LINE
  8
001
 62
               3
  5
1C9
 10
240.63200246089832
 20
60.545581999132395
 30
0.0
 11
240.63200246089821
 21
54.145581999132474
 31
0.0
  0
LINE
  8
001
 62
               3
  5
1CA
 10
239.83200246089837
 20
53.345581999132577
 30
0.0
 11
228.43200246089827
 21
53.345581999132584
 31
0.0
  0
LINE
  8
001
 62
               3
  5
1CB
 10
239.83200246089837
 20
61.345581999132577
 30
0.0
 11
228.4320024608985
 21
61.345581999132584
 31
0.0
  0
LINE
  8
001
 62
               3
  5
1CC
 10
231.38200246089809
 20
91.345581999132463
 30
0.0
 11
230.13200246089821
 21
90.095581999132463
 31
0.0
  0
ARC
  8
001
 62
               3
  5
1CD
 10
228.43200246089827
 20
54.145581999132531
 30
0.0
 40
0.8
 50
180.0
 51
270.0
  0
ARC
  8
001
 62
               3
  5
1CE
 10
239.83200246089837
 20
54.145581999132531
 30
0.0
 40
0.8
 50
270.0
 51
0.0
  0
ARC
  8
001
 62
               3
  5
1CF
 10
239.83200246089837
 20
60.545581999132395
 30
0.0
 40
0.8
 50
0.0
 51
90.0
  0
ARC
  8
001
 62
               3
  5
1D0
 10
228.43200246089827
 20
60.545581999132395
 30
0.0
 40
0.8
 50
90.0
 51
180.0
  0
LINE
  8
001
 62
               3
  5
1D1
 10
106.63766943694213
 20
280.70904117848261
 30
0.0
 11
110.63766943694213
 21
280.70904117848261
 31
0.0
  0
LINE
  8
001
 62
               3
  5
1D2
 10
106.63766943694213
 20
287.35604117848254
 30
0.0
 11
110.63766943694213
 21
287.35604117848254
 31
0.0
  0
LINE
  8
001
 62
               3
  5
1D3
 10
106.63766943694213
 20
288.03254117848257
 30
0.0
 11
110.63766943694213
 21
288.03254117848257
 31
0.0
  0
LINE
  8
001
 62
               3
  5
1D4
 10
106.63766943694213
 20
280.03254117848257
 30
0.0
 11
110.63766943694213
 21
280.03254117848257
 31
0.0
  0
LINE
  8
001
 62
               3
  5
1D5
 10
107.88766943694213
 20
273.03254117848257
 30
0.0
 11
110.63766943694213
 21
273.03254117848257
 31
0.0
  0
LINE
  8
001
 62
               3
  5
1D6
 10
133.63766943694236
 20
273.03254117848257
 30
0.0
 11
136.63766943694208
 21
273.03254117848257
 31
0.0
  0
LINE
  8
001
 62
               3
  5
1D7
 10
107.88766943694213
 20
265.03254117848257
 30
0.0
 11
110.63766943694213
 21
265.03254117848257
 31
0.0
  0
LINE
  8
001
 62
               3
  5
1D8
 10
133.63766943694236
 20
265.03254117848257
 30
0.0
 11
136.63766943694208
 21
265.03254117848257
 31
0.0
  0
LINE
  8
001
 62
               3
  5
1D9
 10
133.63766943694236
 20
264.03254117848292
 30
0.0
 11
133.63766943694236
 21
292.0325411784828
 31
0.0
  0
LINE
  8
001
 62
               3
  5
1DA
 10
88.637669436942133
 20
264.03254117848292
 30
0.0
 11
88.637669436942133
 21
292.0325411784828
 31
0.0
  0
ARC
  8
001
 62
               3
  5
1DB
 10
133.93766943694243
 20
289.73254117848251
 30
0.0
 40
0.8
 50
90.0
 51
112.0243128370472
  0
ARC
  8
001
 62
               3
  5
1DC
 10
133.93766943694231
 20
278.33254117848253
 30
0.0
 40
0.8
 50
247.97568716296186
 51
270.0
  0
LINE
  8
001
 62
               3
  5
1DD
 10
239.83200246089837
 20
380.33795780721061
 30
0.0
 11
228.43200246089827
 21
380.33795780721061
 31
0.0
  0
ARC
  8
001
 62
               3
  5
1DE
 10
228.43200246089873
 20
381.13795780721057
 30
0.0
 40
0.8
 50
180.0
 51
270.0
  0
ARC
  8
001
 62
               3
  5
1DF
 10
239.83200246089837
 20
381.13795780721057
 30
0.0
 40
0.8
 50
270.0
 51
0.0
  0
LINE
  8
001
 62
               3
  5
1E0
 10
227.63200246089855
 20
383.83795780721061
 30
0.0
 11
227.6320024608986
 21
381.13795780721063
 31
0.0
  0
LINE
  8
001
 62
               3
  5
1E1
 10
240.63200246089855
 20
383.83795780721061
 30
0.0
 11
240.63200246089849
 21
381.13795780721051
 31
0.0
  0
ARC
  8
001
 62
               3
  5
1E2
 10
279.13200246089855
 20
416.33795780721039
 30
0.0
 40
47.0
 50
182.43885469094946
 51
177.56114530904975
  0
ARC
  8
001
 62
               3
  5
1E3
 10
228.43200246089873
 20
391.03795780721055
 30
0.0
 40
0.8
 50
157.9756871629634
 51
180.0
  0
LINE
  8
001
 62
               3
  5
1E4
 10
240.63200246089855
 20
389.37294208487606
 30
0.0
 11
240.63200246089846
 21
384.63795780721051
 31
0.0
  0
LINE
  8
001
 62
               3
  5
1E5
 10
238.13200246089855
 20
418.33795780721073
 30
0.0
 11
238.13200246089855
 21
414.33795780721073
 31
0.0
  0
LINE
  8
001
 62
               3
  5
1E6
 10
237.45550246089851
 20
418.33795780721073
 30
0.0
 11
237.45550246089851
 21
414.33795780721073
 31
0.0
  0
LINE
  8
001
 62
               3
  5
1E7
 10
230.80850246089858
 20
418.33795780721073
 30
0.0
 11
230.80850246089858
 21
414.33795780721073
 31
0.0
  0
LINE
  8
001
 62
               3
  5
1E8
 10
230.13200246089855
 20
418.33795780721073
 30
0.0
 11
230.13200246089855
 21
414.33795780721073
 31
0.0
  0
LINE
  8
001
  6
CENTER
  5
1E9
 10
279.13200246089878
 20
352.25087588217718
 30
0.0
 11
279.13200246089872
 21
480.4250397322437
 31
0.0
  0
LINE
  8
001
  6
CENTER
  5
1EA
 10
279.13200246089878
 20
154.62011869976396
 30
0.0
 11
279.13200246089872
 21
24.071045298500849
 31
0.0
  0
LINE
  8
001
 62
               3
  5
1EB
 10
238.13200246089832
 20
66.367331412980946
 30
0.0
 11
238.13200246089832
 21
61.34558199913252
 31
0.0
  0
LINE
  8
001
 62
               3
  5
1EC
 10
230.80850246089835
 20
90.772081999132496
 30
0.0
 11
230.80850246089835
 21
87.345581999132236
 31
0.0
  0
LINE
  8
001
 62
               3
  5
1ED
 10
230.13200246089832
 20
90.095581999132463
 30
0.0
 11
230.13200246089832
 21
87.345581999132236
 31
0.0
  0
LINE
  8
001
 62
               3
  5
1EE
 10
230.13200246089832
 20
69.345581999132321
 30
0.0
 11
230.13200246089832
 21
61.34558199913252
 31
0.0
  0
LINE
  8
001
 62
               3
  5
1EF
 10
232.1379868844449
 20
90.095581999132463
 30
0.0
 11
230.13200246089832
 21
90.095581999132463
 31
0.0
  0
LINE
  8
001
 62
               3
  5
1F0
 10
237.45550246089829
 20
67.449951259985653
 30
0.0
 11
237.45550246089829
 21
61.345581999132577
 31
0.0
  0
LINE
  8
001
 62
               3
  5
1F1
 10
230.80850246089835
 20
69.345581999132321
 30
0.0
 11
230.80850246089835
 21
61.345581999132577
 31
0.0
  0
LINE
  8
001
 62
               3
  5
1F2
 10
107.2111694369421
 20
272.35604117848254
 30
0.0
 11
110.63766943694213
 21
272.35604117848254
 31
0.0
  0
LINE
  8
001
 62
               3
  5
1F3
 10
133.63766943694236
 20
272.35604117848254
 30
0.0
 11
136.63766943694213
 21
272.35604117848254
 31
0.0
  0
LINE
  8
001
 62
               3
  5
1F4
 10
107.2111694369421
 20
265.70904117848261
 30
0.0
 11
110.63766943694213
 21
265.70904117848261
 31
0.0
  0
LINE
  8
001
 62
               3
  5
1F5
 10
133.63766943694236
 20
265.70904117848261
 30
0.0
 11
136.63766943694213
 21
265.70904117848261
 31
0.0
  0
TEXT
  8
001
  5
1F6
 10
518.77694389378053
 20
54.107073045218016
 30
0.0
 40
15.0
  1
2006.1.31
 41
0.6750000675000067
  0
TEXT
  8
001
  5
1F7
 10
518.77694389378053
 20
36.607073045218016
 30
0.0
 40
15.0
  1
FS-74BS
 41
0.5
  0
ENDSEC
  0
EOF
