  0
SECTION
  2
HEADER
  9
$ACADVER
  1
AC1009
  9
$DWGCODEPAGE
  3
dos932
  9
$INSBASE
 10
0.0
 20
0.0
 30
0.0
  9
$EXTMIN
 10
75.07965087890625
 20
37.250885009765625
 30
1.0000000000000000E+20
  9
$EXTMAX
 10
529.4102783203125
 20
317.1920166015625
 30
-1.0000000000000000E+20
  9
$LIMMIN
 10
0.0
 20
0.0
  9
$LIMMAX
 10
12.0
 20
9.0
  9
$ORTHOMODE
 70
               0
  9
$REGENMODE
 70
               1
  9
$FILLMODE
 70
               1
  9
$QTEXTMODE
 70
               0
  9
$MIRRTEXT
 70
               1
  9
$DRAGMODE
 70
               2
  9
$LTSCALE
 40
7.5721771240234377
  9
$OSMODE
 70
               0
  9
$ATTMODE
 70
               1
  9
$TEXTSIZE
 40
3.2000000000000002
  9
$TRACEWID
 40
0.05
  9
$TEXTSTYLE
  7
STANDARD
  9
$CLAYER
  8
0
  9
$CELTYPE
  6
CONTINUOUS
  9
$CECOLOR
 62
             256
  9
$DIMSCALE
 40
1.0
  9
$DIMASZ
 40
0.18
  9
$DIMEXO
 40
0.0625
  9
$DIMDLI
 40
0.38
  9
$DIMRND
 40
0.0
  9
$DIMDLE
 40
0.0
  9
$DIMEXE
 40
0.18
  9
$DIMTP
 40
0.0
  9
$DIMTM
 40
0.0
  9
$DIMTXT
 40
0.18
  9
$DIMCEN
 40
0.09
  9
$DIMTSZ
 40
0.0
  9
$DIMTOL
 70
               0
  9
$DIMLIM
 70
               0
  9
$DIMTIH
 70
               1
  9
$DIMTOH
 70
               1
  9
$DIMSE1
 70
               0
  9
$DIMSE2
 70
               0
  9
$DIMTAD
 70
               0
  9
$DIMZIN
 70
               0
  9
$DIMBLK
  1

  9
$DIMASO
 70
               1
  9
$DIMSHO
 70
               1
  9
$DIMPOST
  1

  9
$DIMAPOST
  1

  9
$DIMALT
 70
               0
  9
$DIMALTD
 70
               2
  9
$DIMALTF
 40
25.399999999999999
  9
$DIMLFAC
 40
1.0
  9
$DIMTOFL
 70
               0
  9
$DIMTVP
 40
0.0
  9
$DIMTIX
 70
               0
  9
$DIMSOXD
 70
               0
  9
$DIMSAH
 70
               0
  9
$DIMBLK1
  1

  9
$DIMBLK2
  1

  9
$DIMSTYLE
  2
STANDARD
  9
$DIMCLRD
 70
               0
  9
$DIMCLRE
 70
               0
  9
$DIMCLRT
 70
               0
  9
$DIMTFAC
 40
1.0
  9
$DIMGAP
 40
0.09
  9
$LUNITS
 70
               2
  9
$LUPREC
 70
               4
  9
$AXISMODE
 70
               0
  9
$AXISUNIT
 10
0.0
 20
0.0
  9
$SKETCHINC
 40
0.1
  9
$FILLETRAD
 40
0.0
  9
$AUNITS
 70
               0
  9
$AUPREC
 70
               0
  9
$MENU
  1
acad
  9
$ELEVATION
 40
0.0
  9
$PELEVATION
 40
0.0
  9
$THICKNESS
 40
0.0
  9
$LIMCHECK
 70
               0
  9
$BLIPMODE
 70
               1
  9
$CHAMFERA
 40
0.0
  9
$CHAMFERB
 40
0.0
  9
$SKPOLY
 70
               0
  9
$TDCREATE
 40
0.000000000
  9
$TDUPDATE
 40
0.000000000
  9
$TDINDWG
 40
0.0000000000
  9
$TDUSRTIMER
 40
0.0000000000
  9
$USRTIMER
 70
               1
  9
$ANGBASE
 50
0.0
  9
$ANGDIR
 70
               0
  9
$PDMODE
 70
               0
  9
$PDSIZE
 40
0.0
  9
$PLINEWID
 40
0.0
  9
$COORDS
 70
               1
  9
$SPLFRAME
 70
               0
  9
$SPLINETYPE
 70
               6
  9
$SPLINESEGS
 70
               8
  9
$ATTDIA
 70
               0
  9
$ATTREQ
 70
               1
  9
$HANDLING
 70
               1
  9
$HANDSEED
  5
223
  9
$SURFTAB1
 70
               6
  9
$SURFTAB2
 70
               6
  9
$SURFTYPE
 70
               6
  9
$SURFU
 70
               6
  9
$SURFV
 70
               6
  9
$UCSNAME
  2

  9
$UCSORG
 10
0.0
 20
0.0
 30
0.0
  9
$UCSXDIR
 10
1.0
 20
0.0
 30
0.0
  9
$UCSYDIR
 10
0.0
 20
1.0
 30
0.0
  9
$PUCSNAME
  2

  9
$PUCSORG
 10
0.0
 20
0.0
 30
0.0
  9
$PUCSXDIR
 10
1.0
 20
0.0
 30
0.0
  9
$PUCSYDIR
 10
0.0
 20
1.0
 30
0.0
  9
$USERI1
 70
               0
  9
$USERI2
 70
               0
  9
$USERI3
 70
               0
  9
$USERI4
 70
               0
  9
$USERI5
 70
               0
  9
$USERR1
 40
0.0
  9
$USERR2
 40
0.0
  9
$USERR3
 40
0.0
  9
$USERR4
 40
0.0
  9
$USERR5
 40
0.0
  9
$WORLDVIEW
 70
               1
  9
$SHADEDGE
 70
               3
  9
$SHADEDIF
 70
              70
  9
$TILEMODE
 70
               1
  9
$MAXACTVP
 70
              16
  9
$PINSBASE
 10
0.0
 20
0.0
 30
0.0
  9
$PLIMCHECK
 70
               0
  9
$PEXTMIN
 10
1.0000000000000000E+20
 20
1.0000000000000000E+20
 30
1.0000000000000000E+20
  9
$PEXTMAX
 10
-1.0000000000000000E+20
 20
-1.0000000000000000E+20
 30
-1.0000000000000000E+20
  9
$PLIMMIN
 10
0.0
 20
0.0
  9
$PLIMMAX
 10
12.0
 20
9.0
  9
$UNITMODE
 70
               0
  9
$VISRETAIN
 70
               0
  9
$PLINEGEN
 70
               0
  9
$PSLTSCALE
 70
               1
  9
$TREEDEPTH
 70
            3020
  0
ENDSEC
  0
SECTION
  2
TABLES
  0
TABLE
  2
VPORT
 70
               1
  0
VPORT
  2
*ACTIVE
 70
               0
 10
0.0
 20
0.0
 11
1.0
 21
1.0
 12
302.24496459960937
 22
177.22145080566406
 13
0.0
 23
0.0
 14
1.0
 24
1.0
 15
0.0
 25
0.0
 16
0.0
 26
0.0
 36
1.0
 17
0.0
 27
0.0
 37
0.0
 40
282.74054290771483
 41
1.6912879999999999
 42
50.0
 43
0.0
 44
0.0
 50
0.0
 51
0.0
 71
               0
 72
             100
 73
               1
 74
               1
 75
               0
 76
               0
 77
               0
 78
               0
  0
ENDTAB
  0
TABLE
  2
LTYPE
 70
               5
  0
LTYPE
  2
CONTINUOUS
 70
              64
  3
Solid line
 72
              65
 73
               0
 40
0.0
  0
LTYPE
  2
DASHED
 70
              64
  3
DASHED
 72
              65
 73
               2
 40
0.75
 49
0.5
 49
-0.25
  0
LTYPE
  2
HIDDEN
 70
              64
  3
HIDDEN
 72
              65
 73
               2
 40
0.375
 49
0.25
 49
-0.125
  0
LTYPE
  2
CENTER
 70
              64
  3
CENTER
 72
              65
 73
               4
 40
2.0
 49
1.25
 49
-0.25
 49
0.25
 49
-0.25
  0
LTYPE
  2
PHANTOM
 70
              64
  3
PHANTOM
 72
              65
 73
               6
 40
2.5
 49
1.25
 49
-0.25
 49
0.25
 49
-0.25
 49
0.25
 49
-0.25
  0
ENDTAB
  0
TABLE
  2
LAYER
 70
               2
  0
LAYER
  2
0
 70
               0
 62
               7
  6
CONTINUOUS
  0
LAYER
  2
001
 70
               0
 62
               7
  6
CONTINUOUS
  0
ENDTAB
  0
TABLE
  2
STYLE
 70
               2
  0
STYLE
  2
STANDARD
 70
               0
 40
0.0
 41
1.0
 50
0.0
 71
               0
 42
0.2
  3
TXT
  4
BIGFONT
  0
STYLE
  2
TATEGAKI
 70
               4
 40
1.0
 41
1.0
 50
0.0
 71
               0
 42
0.2
  3
TXT
  4
BIGFONT
  0
ENDTAB
  0
TABLE
  2
VIEW
 70
               0
  0
ENDTAB
  0
TABLE
  2
UCS
 70
               0
  0
ENDTAB
  0
TABLE
  2
APPID
 70
               1
  0
APPID
  2
ACAD
 70
               0
  0
ENDTAB
  0
TABLE
  2
DIMSTYLE
 70
               1
  0
DIMSTYLE
  2
STANDARD
 70
               0
  3

  4

  5

  6

  7

 40
1.0
 41
0.18
 42
0.0625
 43
0.38
 44
0.18
 45
0.0
 46
0.0
 47
0.0
 48
0.0
 71
               0
 72
               0
 73
               1
 74
               1
 75
               0
 76
               0
 77
               0
 78
               0
140
0.18
141
0.09
142
0.0
143
25.399999999999999
144
1.0
145
0.0
146
1.0
147
0.09
170
               0
171
               2
172
               0
173
               0
174
               0
175
               0
176
               0
177
               0
178
               0
  0
ENDTAB
  0
ENDSEC
  0
SECTION
  2
BLOCKS
  0
ENDSEC
  0
SECTION
  2
ENTITIES
  0
LINE
  8
001
 62
               3
  5
23
 10
367.70940512423306
 20
151.92415647835435
 30
0.0
 11
347.70940512423283
 21
151.92415647835435
 31
0.0
  0
LINE
  8
001
 62
               3
  5
24
 10
386.70940512423306
 20
151.92415647835435
 30
0.0
 11
371.70940512423306
 21
151.92415647835435
 31
0.0
  0
LINE
  8
001
 62
               3
  5
25
 10
386.70940512423306
 20
117.92415647835446
 30
0.0
 11
371.70940512423306
 21
117.92415647835446
 31
0.0
  0
LINE
  8
001
 62
               3
  5
26
 10
347.70940512423283
 20
117.92415647835446
 30
0.0
 11
367.70940512423306
 21
117.92415647835446
 31
0.0
  0
POLYLINE
  8
001
 62
               3
  5
27
 66
               1
 10
0.0
 20
0.0
 30
0.0
  0
VERTEX
  8
001
 62
               3
  5
28
 10
179.37646183478148
 20
60.924156478354121
 30
0.0
  0
VERTEX
  8
001
 62
               3
  5
29
 10
179.2083976744091
 20
60.640185639634161
 30
0.0
  0
VERTEX
  8
001
 62
               3
  5
2A
 10
179.03828122851553
 20
60.357077306884776
 30
0.0
  0
VERTEX
  8
001
 62
               3
  5
2B
 10
178.8732185951651
 20
60.091591410306968
 30
0.0
  0
VERTEX
  8
001
 62
               3
  5
2C
 10
178.70001353416649
 20
59.832298541208388
 30
0.0
  0
VERTEX
  8
001
 62
               3
  5
2D
 10
178.53824243399484
 20
59.613233753386538
 30
0.0
  0
VERTEX
  8
001
 62
               3
  5
2E
 10
178.36429682007258
 20
59.400881310635441
 30
0.0
  0
VERTEX
  8
001
 62
               3
  5
2F
 10
178.2002710326326
 20
59.225877091445831
 30
0.0
  0
VERTEX
  8
001
 62
               3
  5
30
 10
178.01412597817864
 20
59.082146496503356
 30
0.0
  0
VERTEX
  8
001
 62
               3
  5
31
 10
177.803849359693
 20
58.989043152581353
 30
0.0
  0
VERTEX
  8
001
 62
               3
  5
32
 10
177.57760493325702
 20
58.924156478354121
 30
0.0
  0
SEQEND
  8
001
  5
33
  0
ARC
  8
001
 62
               3
  5
34
 10
172.07965581265
 20
57.924156478354121
 30
0.0
 40
1.0
 50
0.0
 51
90.0
  0
ARC
  8
001
 62
               3
  5
35
 10
150.6634573255543
 20
58.924156478354121
 30
0.0
 40
5.0
 50
22.024312837042221
 51
90.0
  0
ARC
  8
001
 62
               3
  5
36
 10
347.70940512423306
 20
57.924156478354121
 30
0.0
 40
3.0
 50
221.81031489577882
 51
270.0
  0
CIRCLE
  8
001
 62
               3
  5
37
 10
265.07965581265
 20
140.92415647835418
 30
0.0
 40
6.9999999999999929
  0
LINE
  8
001
 62
               3
  5
38
 10
267.07965581265
 20
57.924156478354121
 30
0.0
 11
267.07965581265
 21
105.92415647835412
 31
0.0
  0
ARC
  8
001
 62
               3
  5
39
 10
159.07965581265
 20
162.92415647835418
 30
0.0
 40
5.0
 50
270.0
 51
0.0
  0
LINE
  8
001
 62
               3
  5
3A
 10
175.07965581265
 20
55.924156478354121
 30
0.0
 11
173.07965581265
 21
57.924156478354121
 31
0.0
  0
LINE
  8
001
 62
               3
  5
3B
 10
175.07965581265
 20
55.924156478354121
 30
0.0
 11
265.07965581265
 21
55.924156478354121
 31
0.0
  0
LINE
  8
001
 62
               3
  5
3C
 10
177.57760493325702
 20
58.924156478354121
 30
0.0
 11
158.07965581264989
 21
58.924156478354121
 31
0.0
  0
ARC
  8
001
 62
               3
  5
3D
 10
158.07965581265
 20
61.924156478354121
 30
0.0
 40
3.0
 50
202.0243128370422
 51
270.0
  0
CIRCLE
  8
001
 62
               3
  5
3E
 10
105.07965581265
 20
65.924156478354121
 30
0.0
 40
6.9999999999999929
  0
LINE
  8
001
 62
               3
  5
3F
 10
150.6634573255543
 20
63.924156478354121
 30
0.0
 11
140.07965581264995
 21
63.924156478354121
 31
0.0
  0
POLYLINE
  8
001
 62
               3
  5
40
 66
               1
 10
0.0
 20
0.0
 30
0.0
  0
VERTEX
  8
001
 62
               3
  5
41
 10
169.07965581265
 20
155.79062502670325
 30
0.0
  0
VERTEX
  8
001
 62
               3
  5
42
 10
168.67261735982621
 20
155.79783769712364
 30
0.0
  0
VERTEX
  8
001
 62
               3
  5
43
 10
168.26583223929504
 20
155.81158627302653
 30
0.0
  0
VERTEX
  8
001
 62
               3
  5
44
 10
167.87019307189414
 20
155.83628967060079
 30
0.0
  0
VERTEX
  8
001
 62
               3
  5
45
 10
167.47536715297349
 20
155.87226295584952
 30
0.0
  0
VERTEX
  8
001
 62
               3
  5
46
 10
167.10296484663201
 20
155.91591235077982
 30
0.0
  0
VERTEX
  8
001
 62
               3
  5
47
 10
166.7318192568697
 20
155.96931221437097
 30
0.0
  0
VERTEX
  8
001
 62
               3
  5
48
 10
166.39126009237904
 20
156.02783296579634
 30
0.0
  0
VERTEX
  8
001
 62
               3
  5
49
 10
166.05270519020075
 20
156.0963695082034
 30
0.0
  0
VERTEX
  8
001
 62
               3
  5
4A
 10
165.74661966364366
 20
156.16845790936384
 30
0.0
  0
VERTEX
  8
001
 62
               3
  5
4B
 10
165.44265419020883
 20
156.25053055774111
 30
0.0
  0
VERTEX
  8
001
 62
               3
  5
4C
 10
165.1846878728671
 20
156.32981781063214
 30
0.0
  0
VERTEX
  8
001
 62
               3
  5
4D
 10
164.93177196845875
 20
156.42085525115618
 30
0.0
  0
VERTEX
  8
001
 62
               3
  5
4E
 10
164.72512341179302
 20
156.50857623811029
 30
0.0
  0
VERTEX
  8
001
 62
               3
  5
4F
 10
164.52010089189764
 20
156.60644157644748
 30
0.0
  0
VERTEX
  8
001
 62
               3
  5
50
 10
164.36928107661996
 20
156.68851685274223
 30
0.0
  0
VERTEX
  8
001
 62
               3
  5
51
 10
164.23874343507794
 20
156.79258089577064
 30
0.0
  0
VERTEX
  8
001
 62
               3
  5
52
 10
164.15050932883929
 20
156.91549366558152
 30
0.0
  0
VERTEX
  8
001
 62
               3
  5
53
 10
164.07965581265
 20
157.05440685703735
 30
0.0
  0
SEQEND
  8
001
  5
54
  0
LINE
  8
001
 62
               3
  5
55
 10
173.058384030615
 20
155.79062502670325
 30
0.0
 11
169.07965581265
 21
155.79062502670325
 31
0.0
  0
POLYLINE
  8
001
 62
               3
  5
56
 66
               1
 10
0.0
 20
0.0
 30
0.0
  0
VERTEX
  8
001
 62
               3
  5
57
 10
175.87966033753708
 20
155.12415195346711
 30
0.0
  0
VERTEX
  8
001
 62
               3
  5
58
 10
175.76416939607239
 20
155.21704034461359
 30
0.0
  0
VERTEX
  8
001
 62
               3
  5
59
 10
175.64365802906434
 20
155.30212557977205
 30
0.0
  0
VERTEX
  8
001
 62
               3
  5
5A
 10
175.48961159143357
 20
155.38550872995614
 30
0.0
  0
VERTEX
  8
001
 62
               3
  5
5B
 10
175.32733970492006
 20
155.45366263273814
 30
0.0
  0
VERTEX
  8
001
 62
               3
  5
5C
 10
175.14007942394906
 20
155.51938524574979
 30
0.0
  0
VERTEX
  8
001
 62
               3
  5
5D
 10
174.95007486242423
 20
155.57534966999111
 30
0.0
  0
VERTEX
  8
001
 62
               3
  5
5E
 10
174.73159704681507
 20
155.62839122432689
 30
0.0
  0
VERTEX
  8
001
 62
               3
  5
5F
 10
174.51087576407224
 20
155.67186500827717
 30
0.0
  0
VERTEX
  8
001
 62
               3
  5
60
 10
174.28101332069906
 20
155.70838777970636
 30
0.0
  0
VERTEX
  8
001
 62
               3
  5
61
 10
174.05012238277789
 20
155.73754169337968
 30
0.0
  0
VERTEX
  8
001
 62
               3
  5
62
 10
173.80481965090473
 20
155.76133049675241
 30
0.0
  0
VERTEX
  8
001
 62
               3
  5
63
 10
173.55893355765977
 20
155.77748128485842
 30
0.0
  0
VERTEX
  8
001
 62
               3
  5
64
 10
173.30874478409143
 20
155.78620066188182
 30
0.0
  0
VERTEX
  8
001
 62
               3
  5
65
 10
173.058384030615
 20
155.79062502670325
 30
0.0
  0
SEQEND
  8
001
  5
66
  0
LINE
  8
001
 62
               3
  5
67
 10
220.07965581265
 20
110.92415647835418
 30
0.0
 11
175.87966033753713
 21
155.12415195346708
 31
0.0
  0
LINE
  8
001
 62
               3
  5
68
 10
179.37646183478148
 20
70.220962500485598
 30
0.0
 11
220.07965581265003
 21
110.92415647835421
 31
0.0
  0
POLYLINE
  8
001
 62
               3
  5
69
 66
               1
 10
0.0
 20
0.0
 30
0.0
  0
VERTEX
  8
001
 62
               3
  5
6A
 10
176.77838562342811
 20
69.391037163763826
 30
0.0
  0
VERTEX
  8
001
 62
               3
  5
6B
 10
177.23243467303413
 20
69.415499298072675
 30
0.0
  0
VERTEX
  8
001
 62
               3
  5
6C
 10
177.68284691109318
 20
69.465278191874063
 30
0.0
  0
VERTEX
  8
001
 62
               3
  5
6D
 10
178.0877937805532
 20
69.550849083168458
 30
0.0
  0
VERTEX
  8
001
 62
               3
  5
6E
 10
178.48382880339034
 20
69.677180965570983
 30
0.0
  0
VERTEX
  8
001
 62
               3
  5
6F
 10
178.82239056365637
 20
69.824512888317429
 30
0.0
  0
VERTEX
  8
001
 62
               3
  5
70
 10
179.13447898413222
 20
70.01686831022073
 30
0.0
  0
VERTEX
  8
001
 62
               3
  5
71
 10
179.257503367287
 20
70.116162822294939
 30
0.0
  0
VERTEX
  8
001
 62
               3
  5
72
 10
179.37646183478171
 20
70.220962500485484
 30
0.0
  0
SEQEND
  8
001
  5
73
  0
LINE
  8
001
 62
               3
  5
74
 10
160.07965581265
 20
69.391037163763826
 30
0.0
 11
176.77838562342811
 21
69.391037163763826
 31
0.0
  0
POLYLINE
  8
001
 62
               3
  5
75
 66
               1
 10
0.0
 20
0.0
 30
0.0
  0
VERTEX
  8
001
 62
               3
  5
76
 10
155.07965581265
 20
67.106351877940938
 30
0.0
  0
VERTEX
  8
001
 62
               3
  5
77
 10
155.11135778652243
 20
67.290839610033601
 30
0.0
  0
VERTEX
  8
001
 62
               3
  5
78
 10
155.16252856263657
 20
67.468021717982765
 30
0.0
  0
VERTEX
  8
001
 62
               3
  5
79
 10
155.26693307736605
 20
67.661861731175051
 30
0.0
  0
VERTEX
  8
001
 62
               3
  5
7A
 10
155.40551887769914
 20
67.837265919602032
 30
0.0
  0
VERTEX
  8
001
 62
               3
  5
7B
 10
155.59630557526953
 20
68.02971770624022
 30
0.0
  0
VERTEX
  8
001
 62
               3
  5
7C
 10
155.80361505220924
 20
68.201776636456771
 30
0.0
  0
VERTEX
  8
001
 62
               3
  5
7D
 10
156.06805597281354
 20
68.384725803496949
 30
0.0
  0
VERTEX
  8
001
 62
               3
  5
7E
 10
156.34654208486302
 20
68.546756457877223
 30
0.0
  0
VERTEX
  8
001
 62
               3
  5
7F
 10
156.67644996051618
 20
68.709768250665135
 30
0.0
  0
VERTEX
  8
001
 62
               3
  5
80
 10
157.01571042763123
 20
68.851876446789106
 30
0.0
  0
VERTEX
  8
001
 62
               3
  5
81
 10
157.40444495370468
 20
68.989168943567975
 30
0.0
  0
VERTEX
  8
001
 62
               3
  5
82
 10
157.8002752040087
 20
69.104445505312015
 30
0.0
  0
VERTEX
  8
001
 62
               3
  5
83
 10
158.19794631165564
 20
69.197971101147601
 30
0.0
  0
VERTEX
  8
001
 62
               3
  5
84
 10
158.59968039165722
 20
69.27266294012577
 30
0.0
  0
VERTEX
  8
001
 62
               3
  5
85
 10
159.0252311122803
 20
69.332200149616185
 30
0.0
  0
VERTEX
  8
001
 62
               3
  5
86
 10
159.4530223171738
 20
69.370179171919517
 30
0.0
  0
VERTEX
  8
001
 62
               3
  5
87
 10
159.76616920221528
 20
69.383873608445484
 30
0.0
  0
VERTEX
  8
001
 62
               3
  5
88
 10
160.07965581265
 20
69.391037163763826
 30
0.0
  0
SEQEND
  8
001
  5
89
  0
LINE
  8
001
 62
               3
  5
8A
 10
179.37646183478148
 20
60.924156402466167
 30
0.0
 11
179.37646183478148
 21
70.220962500485612
 31
0.0
  0
LINE
  8
001
 62
               3
  5
8B
 10
175.87966033753708
 20
155.12415195346711
 30
0.0
 11
175.87966033753708
 21
163.92415647835418
 31
0.0
  0
LINE
  8
001
 62
               3
  5
8C
 10
177.76051120881846
 20
165.92415647835418
 30
0.0
 11
175.87966033753708
 21
163.92415647835418
 31
0.0
  0
LINE
  8
001
 62
               3
  5
8D
 10
166.07965581265
 20
165.92415647835418
 30
0.0
 11
265.07965581265
 21
165.92415647835418
 31
0.0
  0
LINE
  8
001
 62
               3
  5
8E
 10
267.07965581265
 20
163.92415647835418
 30
0.0
 11
265.07965581265
 21
165.92415647835418
 31
0.0
  0
LINE
  8
001
 62
               3
  5
8F
 10
265.07965581265
 20
55.924156478354121
 30
0.0
 11
267.07965581265
 21
57.924156478354121
 31
0.0
  0
LINE
  8
001
 62
               3
  5
90
 10
80.079655812650003
 20
65.924156478354121
 30
0.0
 11
80.079655812650003
 21
155.92415647835412
 31
0.0
  0
LINE
  8
001
 62
               3
  5
91
 10
159.07965581265
 20
157.92415647835418
 30
0.0
 11
82.079655812650003
 21
157.92415647835418
 31
0.0
  0
LINE
  8
001
 62
               3
  5
92
 10
82.079655812650003
 20
157.92415647835418
 30
0.0
 11
80.079655812650003
 21
155.92415647835418
 31
0.0
  0
LINE
  8
001
 62
               3
  5
93
 10
82.079655812650003
 20
63.924156478354121
 30
0.0
 11
80.079655812650003
 21
65.924156478354121
 31
0.0
  0
LINE
  8
001
 62
               3
  5
94
 10
164.07965581265
 20
162.92415647835418
 30
0.0
 11
164.07965581265
 21
163.92415647835418
 31
0.0
  0
LINE
  8
001
 62
               3
  5
95
 10
166.07965581265
 20
165.92415647835418
 30
0.0
 11
164.07965581265
 21
163.92415647835418
 31
0.0
  0
LINE
  8
001
 62
               3
  5
96
 10
80.079655812650003
 20
220.19200526114219
 30
0.0
 11
80.079655812650003
 21
310.19200526114219
 31
0.0
  0
LINE
  8
001
 62
               3
  5
97
 10
82.079655812650003
 20
218.19200526114219
 30
0.0
 11
220.07965581265003
 21
218.19200526114219
 31
0.0
  0
LINE
  8
001
 62
               3
  5
98
 10
82.079655812650003
 20
312.19200526114219
 30
0.0
 11
80.079655812650003
 21
310.19200526114219
 31
0.0
  0
LINE
  8
001
 62
               3
  5
99
 10
80.079655812650003
 20
220.19200526114219
 30
0.0
 11
82.079655812650003
 21
218.19200526114219
 31
0.0
  0
LINE
  8
001
 62
               3
  5
9A
 10
262.55317697584053
 20
240.19200526114219
 30
0.0
 11
273.07965581264989
 21
240.19200526114219
 31
0.0
  0
LINE
  8
001
 62
               3
  5
9B
 10
265.67570827336192
 20
285.19200526114219
 30
0.0
 11
273.07965581264978
 21
285.19200526114219
 31
0.0
  0
ARC
  8
001
 62
               3
  5
9C
 10
273.07965581265
 20
243.19200526114219
 30
0.0
 40
3.0
 50
270.0
 51
0.0
  0
ARC
  8
001
 62
               3
  5
9D
 10
273.07965581265
 20
282.19200526114219
 30
0.0
 40
3.0
 50
0.0000000000000127
 51
90.000000000000014
  0
ARC
  8
001
 62
               3
  5
9E
 10
262.55317697584053
 20
235.19200526114219
 30
0.0
 40
5.0
 50
90.000000000000028
 51
144.76558201541886
  0
LINE
  8
001
 62
               3
  5
9F
 10
164.07965581265
 20
256.19200526114219
 30
0.0
 11
164.07965581265
 21
274.19200526114219
 31
0.0
  0
LINE
  8
001
 62
               3
  5
A0
 10
173.058384030615
 20
279.19200526114219
 30
0.0
 11
169.07965581265
 21
279.19200526114219
 31
0.0
  0
LINE
  8
001
 62
               3
  5
A1
 10
173.058384030615
 20
251.19200526114219
 30
0.0
 11
169.07965581265
 21
251.19200526114219
 31
0.0
  0
ARC
  8
001
 62
               3
  5
A2
 10
169.07965581265
 20
274.19200526114219
 30
0.0
 40
5.0
 50
90.0
 51
180.0
  0
ARC
  8
001
 62
               3
  5
A3
 10
169.07965581265
 20
256.19200526114219
 30
0.0
 40
5.0
 50
180.0
 51
270.0
  0
ARC
  8
001
 62
               3
  5
A4
 10
173.058384030615
 20
282.19200526114219
 30
0.0
 40
3.0
 50
270.0
 51
340.12312592992117
  0
ARC
  8
001
 62
               3
  5
A5
 10
173.058384030615
 20
248.19200526114219
 30
0.0
 40
3.0
 50
19.876874070078827
 51
90.0
  0
LINE
  8
001
 62
               3
  5
A6
 10
276.07965581265
 20
263.19200526114219
 30
0.0
 11
257.48813985510981
 21
263.19200526114219
 31
0.0
  0
LINE
  8
001
 62
               3
  5
A7
 10
276.07965581265
 20
267.19200526114219
 30
0.0
 11
257.48813985510941
 21
267.19200526114219
 31
0.0
  0
LINE
  8
001
 62
               3
  5
A8
 10
257.48813985510935
 20
267.19200526114219
 30
0.0
 11
256.99560450023921
 21
267.68454061601233
 31
0.0
  0
LINE
  8
001
 62
               3
  5
A9
 10
257.48813985510981
 20
263.19200526114219
 30
0.0
 11
256.99560450023921
 21
262.69946990627159
 31
0.0
  0
LINE
  8
001
 62
               3
  5
AA
 10
276.07965581265
 20
282.19200526114219
 30
0.0
 11
276.07965581265
 21
267.19200526114219
 31
0.0
  0
LINE
  8
001
 62
               3
  5
AB
 10
276.07965581265
 20
263.19200526114219
 30
0.0
 11
276.07965581265
 21
243.19200526114219
 31
0.0
  0
ARC
  8
001
 62
               3
  5
AC
 10
265.67570827336192
 20
290.19200526114219
 30
0.0
 40
5.0
 50
208.73565374490539
 51
270.0
  0
LINE
  8
001
 62
               3
  5
AD
 10
137.07965581265
 20
100.92415647835418
 30
0.0
 11
133.07965581265
 21
100.92415647835418
 31
0.0
  0
ARC
  8
001
 62
               3
  5
AE
 10
133.07965581265
 20
97.924156478354178
 30
0.0
 40
3.0
 50
90.0
 51
180.0
  0
ARC
  8
001
 62
               3
  5
AF
 10
137.07965581265
 20
97.924156478354178
 30
0.0
 40
3.0
 50
0.0000000000000127
 51
90.000000000000014
  0
LINE
  8
001
 62
               3
  5
B0
 10
140.07965581265
 20
97.924156478354178
 30
0.0
 11
140.07965581265
 21
63.924156478354178
 31
0.0
  0
LINE
  8
001
 62
               3
  5
B1
 10
130.07965581265
 20
63.924156478354234
 30
0.0
 11
130.07965581265
 21
97.924156478354178
 31
0.0
  0
LINE
  8
001
 62
               3
  5
B2
 10
230.07965581265
 20
108.92415647835418
 30
0.0
 11
230.07965581265
 21
112.92415647835418
 31
0.0
  0
ARC
  8
001
 62
               3
  5
B3
 10
233.07965581265
 20
112.92415647835418
 30
0.0
 40
3.0
 50
90.0
 51
180.0
  0
ARC
  8
001
 62
               3
  5
B4
 10
233.07965581265
 20
108.92415647835418
 30
0.0
 40
3.0
 50
180.0
 51
270.0
  0
LINE
  8
001
 62
               3
  5
B5
 10
233.07965581265
 20
105.92415647835418
 30
0.0
 11
267.07965581265
 21
105.92415647835418
 31
0.0
  0
LINE
  8
001
 62
               3
  5
B6
 10
267.07965581264978
 20
115.92415647835418
 30
0.0
 11
233.07965581264989
 21
115.92415647835418
 31
0.0
  0
LINE
  8
001
 62
               3
  5
B7
 10
414.70940512423306
 20
165.92415647835412
 30
0.0
 11
324.70940512423272
 21
165.92415647835412
 31
0.0
  0
LINE
  8
001
 62
               3
  5
B8
 10
416.70940512423306
 20
57.924156478354121
 30
0.0
 11
416.70940512423306
 21
163.92415647835412
 31
0.0
  0
LINE
  8
001
 62
               3
  5
B9
 10
414.70940512423306
 20
165.92415647835412
 30
0.0
 11
416.70940512423306
 21
163.92415647835412
 31
0.0
  0
LINE
  8
001
 62
               3
  5
BA
 10
322.70940512423306
 20
163.92415647835412
 30
0.0
 11
322.70940512423306
 21
57.924156478354121
 31
0.0
  0
LINE
  8
001
 62
               3
  5
BB
 10
324.70940512423306
 20
165.92415647835412
 30
0.0
 11
322.70940512423306
 21
163.92415647835412
 31
0.0
  0
LINE
  8
001
 62
               3
  5
BC
 10
414.70940512423306
 20
55.924156478354121
 30
0.0
 11
324.70940512423272
 21
55.924156478354121
 31
0.0
  0
LINE
  8
001
 62
               3
  5
BD
 10
414.70940512423306
 20
55.924156478354121
 30
0.0
 11
416.70940512423306
 21
57.924156478354121
 31
0.0
  0
LINE
  8
001
 62
               3
  5
BE
 10
324.70940512423306
 20
55.924156478354121
 30
0.0
 11
322.70940512423306
 21
57.924156478354121
 31
0.0
  0
LINE
  8
001
 62
               3
  5
BF
 10
414.25152002687116
 20
115.92415647835412
 30
0.0
 11
371.70940512423306
 21
115.92415647835412
 31
0.0
  0
LINE
  8
001
 62
               3
  5
C0
 10
325.16729022159313
 20
115.92415647835412
 30
0.0
 11
367.70940512423323
 21
115.92415647835412
 31
0.0
  0
LINE
  8
001
 62
               3
  5
C1
 10
325.16728999736949
 20
105.92415647835412
 30
0.0
 11
414.25152002687338
 21
105.92415647835412
 31
0.0
  0
LINE
  8
001
 62
               3
  5
C2
 10
367.70940512423306
 20
115.92415647835412
 30
0.0
 11
367.70940512423306
 21
165.92415647835412
 31
0.0
  0
LINE
  8
001
 62
               3
  5
C3
 10
371.70940512423306
 20
115.92415647835412
 30
0.0
 11
371.70940512423306
 21
165.92415647835412
 31
0.0
  0
LINE
  8
001
 62
               3
  5
C4
 10
415.15167619424017
 20
112.92415647835412
 30
0.0
 11
415.15167619424017
 21
108.92415647835412
 31
0.0
  0
LINE
  8
001
 62
               3
  5
C5
 10
324.26713405422595
 20
108.92415647835412
 30
0.0
 11
324.26713405422595
 21
112.92415647835412
 31
0.0
  0
POLYLINE
  8
001
 62
               3
  5
C6
 66
               1
 10
0.0
 20
0.0
 30
0.0
  0
VERTEX
  8
001
 62
               3
  5
C7
 10
334.70940512423306
 20
112.92415647835412
 30
0.0
  0
VERTEX
  8
001
 62
               3
  5
C8
 10
334.71399827296989
 20
113.16525529570953
 30
0.0
  0
VERTEX
  8
001
 62
               3
  5
C9
 10
334.72287890973752
 20
113.40617252941412
 30
0.0
  0
VERTEX
  8
001
 62
               3
  5
CA
 10
334.73900080582911
 20
113.64059063143242
 30
0.0
  0
VERTEX
  8
001
 62
               3
  5
CB
 10
334.76274824213948
 20
113.87440195203347
 30
0.0
  0
VERTEX
  8
001
 62
               3
  5
CC
 10
334.79204477545977
 20
114.09521224160601
 30
0.0
  0
VERTEX
  8
001
 62
               3
  5
CD
 10
334.82859122158089
 20
114.31493409733396
 30
0.0
  0
VERTEX
  8
001
 62
               3
  5
CE
 10
334.86971194624005
 20
114.51696690358412
 30
0.0
  0
VERTEX
  8
001
 62
               3
  5
CF
 10
334.91899639406654
 20
114.71712089919289
 30
0.0
  0
VERTEX
  8
001
 62
               3
  5
D0
 10
334.97242670668874
 20
114.89829525570578
 30
0.0
  0
VERTEX
  8
001
 62
               3
  5
D1
 10
335.03501508979815
 20
115.07664681087294
 30
0.0
  0
VERTEX
  8
001
 62
               3
  5
D2
 10
335.09876808308587
 20
115.23009716521788
 30
0.0
  0
VERTEX
  8
001
 62
               3
  5
D3
 10
335.17276083293899
 20
115.37847311478031
 30
0.0
  0
VERTEX
  8
001
 62
               3
  5
D4
 10
335.24983254306483
 20
115.50581025358971
 30
0.0
  0
VERTEX
  8
001
 62
               3
  5
D5
 10
335.3384316824397
 20
115.62660596128151
 30
0.0
  0
VERTEX
  8
001
 62
               3
  5
D6
 10
335.42408587162925
 20
115.72185207001326
 30
0.0
  0
VERTEX
  8
001
 62
               3
  5
D7
 10
335.52189828452526
 20
115.80113612784939
 30
0.0
  0
VERTEX
  8
001
 62
               3
  5
D8
 10
335.69549403210533
 20
115.87812996624365
 30
0.0
  0
VERTEX
  8
001
 62
               3
  5
D9
 10
335.8863360736575
 20
115.92415647835412
 30
0.0
  0
SEQEND
  8
001
  5
DA
  0
LINE
  8
001
 62
               3
  5
DB
 10
334.70940512423306
 20
108.92415647835412
 30
0.0
 11
334.70940512423306
 21
112.92415647835412
 31
0.0
  0
POLYLINE
  8
001
 62
               3
  5
DC
 66
               1
 10
0.0
 20
0.0
 30
0.0
  0
VERTEX
  8
001
 62
               3
  5
DD
 10
335.88633607365762
 20
105.92415647835412
 30
0.0
  0
VERTEX
  8
001
 62
               3
  5
DE
 10
335.76925710461137
 20
105.9411160530627
 30
0.0
  0
VERTEX
  8
001
 62
               3
  5
DF
 10
335.65679733432927
 20
105.97142116762669
 30
0.0
  0
VERTEX
  8
001
 62
               3
  5
E0
 10
335.54312110885496
 20
106.03128135706709
 30
0.0
  0
VERTEX
  8
001
 62
               3
  5
E1
 10
335.44134306133577
 20
106.11260534679138
 30
0.0
  0
VERTEX
  8
001
 62
               3
  5
E2
 10
335.33580131527867
 20
106.22511489250233
 30
0.0
  0
VERTEX
  8
001
 62
               3
  5
E3
 10
335.24517931567209
 20
106.34912611492469
 30
0.0
  0
VERTEX
  8
001
 62
               3
  5
E4
 10
335.15225244261279
 20
106.50840713412713
 30
0.0
  0
VERTEX
  8
001
 62
               3
  5
E5
 10
335.07369130633629
 20
106.67553868260221
 30
0.0
  0
VERTEX
  8
001
 62
               3
  5
E6
 10
335.00060478899582
 20
106.8655386018746
 30
0.0
  0
VERTEX
  8
001
 62
               3
  5
E7
 10
334.93919605373759
 20
107.05955425996392
 30
0.0
  0
VERTEX
  8
001
 62
               3
  5
E8
 10
334.88113764685431
 20
107.28185632852026
 30
0.0
  0
VERTEX
  8
001
 62
               3
  5
E9
 10
334.83350067286705
 20
107.50662966422045
 30
0.0
  0
VERTEX
  8
001
 62
               3
  5
EA
 10
334.79441912785336
 20
107.7370939328456
 30
0.0
  0
VERTEX
  8
001
 62
               3
  5
EB
 10
334.76345741995561
 20
107.9688130292763
 30
0.0
  0
VERTEX
  8
001
 62
               3
  5
EC
 10
334.73846125560357
 20
108.21443706890209
 30
0.0
  0
VERTEX
  8
001
 62
               3
  5
ED
 10
334.72177344315458
 20
108.46070627527071
 30
0.0
  0
VERTEX
  8
001
 62
               3
  5
EE
 10
334.71358564300562
 20
108.69234782419167
 30
0.0
  0
VERTEX
  8
001
 62
               3
  5
EF
 10
334.70940512423311
 20
108.92415647835412
 30
0.0
  0
SEQEND
  8
001
  5
F0
  0
POLYLINE
  8
001
 62
               3
  5
F1
 66
               1
 10
0.0
 20
0.0
 30
0.0
  0
VERTEX
  8
001
 62
               3
  5
F2
 10
404.70940512423306
 20
108.92415647835412
 30
0.0
  0
VERTEX
  8
001
 62
               3
  5
F3
 10
404.70481197549623
 20
108.68305766099871
 30
0.0
  0
VERTEX
  8
001
 62
               3
  5
F4
 10
404.6959313387286
 20
108.44214042729412
 30
0.0
  0
VERTEX
  8
001
 62
               3
  5
F5
 10
404.67980944263701
 20
108.20772232527582
 30
0.0
  0
VERTEX
  8
001
 62
               3
  5
F6
 10
404.65606200632664
 20
107.97391100467478
 30
0.0
  0
VERTEX
  8
001
 62
               3
  5
F7
 10
404.62676547300634
 20
107.75310071510224
 30
0.0
  0
VERTEX
  8
001
 62
               3
  5
F8
 10
404.59021902688522
 20
107.53337885937428
 30
0.0
  0
VERTEX
  8
001
 62
               3
  5
F9
 10
404.54909830222607
 20
107.33134605312412
 30
0.0
  0
VERTEX
  8
001
 62
               3
  5
FA
 10
404.49981385439958
 20
107.13119205751535
 30
0.0
  0
VERTEX
  8
001
 62
               3
  5
FB
 10
404.44638354177738
 20
106.95001770100247
 30
0.0
  0
VERTEX
  8
001
 62
               3
  5
FC
 10
404.38379515866797
 20
106.7716661458353
 30
0.0
  0
VERTEX
  8
001
 62
               3
  5
FD
 10
404.32004216538024
 20
106.61821579149036
 30
0.0
  0
VERTEX
  8
001
 62
               3
  5
FE
 10
404.24604941552712
 20
106.46983984192794
 30
0.0
  0
VERTEX
  8
001
 62
               3
  5
FF
 10
404.16897770540129
 20
106.34250270311853
 30
0.0
  0
VERTEX
  8
001
 62
               3
  5
100
 10
404.08037856602641
 20
106.22170699542671
 30
0.0
  0
VERTEX
  8
001
 62
               3
  5
101
 10
403.99472437683687
 20
106.12646088669499
 30
0.0
  0
VERTEX
  8
001
 62
               3
  5
102
 10
403.89691196394085
 20
106.04717682885885
 30
0.0
  0
VERTEX
  8
001
 62
               3
  5
103
 10
403.72331621636073
 20
105.97018299046459
 30
0.0
  0
VERTEX
  8
001
 62
               3
  5
104
 10
403.53247417480856
 20
105.92415647835412
 30
0.0
  0
SEQEND
  8
001
  5
105
  0
LINE
  8
001
 62
               3
  5
106
 10
404.70940512423306
 20
112.92415647835412
 30
0.0
 11
404.70940512423306
 21
108.92415647835412
 31
0.0
  0
POLYLINE
  8
001
 62
               3
  5
107
 66
               1
 10
0.0
 20
0.0
 30
0.0
  0
VERTEX
  8
001
 62
               3
  5
108
 10
403.5324741748085
 20
115.92415647835412
 30
0.0
  0
VERTEX
  8
001
 62
               3
  5
109
 10
403.64955314385475
 20
115.90719690364554
 30
0.0
  0
VERTEX
  8
001
 62
               3
  5
10A
 10
403.76201291413685
 20
115.87689178908155
 30
0.0
  0
VERTEX
  8
001
 62
               3
  5
10B
 10
403.87568913961115
 20
115.81703159964115
 30
0.0
  0
VERTEX
  8
001
 62
               3
  5
10C
 10
403.97746718713034
 20
115.73570760991686
 30
0.0
  0
VERTEX
  8
001
 62
               3
  5
10D
 10
404.08300893318744
 20
115.62319806420591
 30
0.0
  0
VERTEX
  8
001
 62
               3
  5
10E
 10
404.17363093279403
 20
115.49918684178355
 30
0.0
  0
VERTEX
  8
001
 62
               3
  5
10F
 10
404.26655780585332
 20
115.33990582258112
 30
0.0
  0
VERTEX
  8
001
 62
               3
  5
110
 10
404.34511894212983
 20
115.17277427410603
 30
0.0
  0
VERTEX
  8
001
 62
               3
  5
111
 10
404.4182054594703
 20
114.98277435483364
 30
0.0
  0
VERTEX
  8
001
 62
               3
  5
112
 10
404.47961419472853
 20
114.78875869674432
 30
0.0
  0
VERTEX
  8
001
 62
               3
  5
113
 10
404.5376726016118
 20
114.56645662818798
 30
0.0
  0
VERTEX
  8
001
 62
               3
  5
114
 10
404.58530957559907
 20
114.34168329248779
 30
0.0
  0
VERTEX
  8
001
 62
               3
  5
115
 10
404.62439112061276
 20
114.11121902386265
 30
0.0
  0
VERTEX
  8
001
 62
               3
  5
116
 10
404.6553528285105
 20
113.87949992743194
 30
0.0
  0
VERTEX
  8
001
 62
               3
  5
117
 10
404.68034899286255
 20
113.63387588780616
 30
0.0
  0
VERTEX
  8
001
 62
               3
  5
118
 10
404.69703680531154
 20
113.38760668143753
 30
0.0
  0
VERTEX
  8
001
 62
               3
  5
119
 10
404.7052246054605
 20
113.15596513251657
 30
0.0
  0
VERTEX
  8
001
 62
               3
  5
11A
 10
404.709405124233
 20
112.92415647835412
 30
0.0
  0
SEQEND
  8
001
  5
11B
  0
POLYLINE
  8
001
 62
               3
  5
11C
 66
               1
 10
0.0
 20
0.0
 30
0.0
  0
VERTEX
  8
001
 62
               3
  5
11D
 10
414.25152002687344
 20
115.92415647835412
 30
0.0
  0
VERTEX
  8
001
 62
               3
  5
11E
 10
414.33960909616917
 20
115.90705978438493
 30
0.0
  0
VERTEX
  8
001
 62
               3
  5
11F
 10
414.42262105824426
 20
115.87877579919119
 30
0.0
  0
VERTEX
  8
001
 62
               3
  5
120
 10
414.50913763322222
 20
115.82067271604653
 30
0.0
  0
VERTEX
  8
001
 62
               3
  5
121
 10
414.58330464654966
 20
115.74404273320924
 30
0.0
  0
VERTEX
  8
001
 62
               3
  5
122
 10
414.6629670672873
 20
115.6357440288832
 30
0.0
  0
VERTEX
  8
001
 62
               3
  5
123
 10
414.72961198891949
 20
115.52027771702402
 30
0.0
  0
VERTEX
  8
001
 62
               3
  5
124
 10
414.79949228361494
 20
115.36954894329
 30
0.0
  0
VERTEX
  8
001
 62
               3
  5
125
 10
414.8580620007387
 20
115.21361581837549
 30
0.0
  0
VERTEX
  8
001
 62
               3
  5
126
 10
414.91478764915627
 20
115.03022777680032
 30
0.0
  0
VERTEX
  8
001
 62
               3
  5
127
 10
414.96227996523515
 20
114.84437548410122
 30
0.0
  0
VERTEX
  8
001
 62
               3
  5
128
 10
415.00768463255883
 20
114.63032182722151
 30
0.0
  0
VERTEX
  8
001
 62
               3
  5
129
 10
415.04512128244448
 20
114.41469653444825
 30
0.0
  0
VERTEX
  8
001
 62
               3
  5
12A
 10
415.07717020799521
 20
114.18620640036352
 30
0.0
  0
VERTEX
  8
001
 62
               3
  5
12B
 10
415.10277472645356
 20
113.95689698339456
 30
0.0
  0
VERTEX
  8
001
 62
               3
  5
12C
 10
415.12389997184914
 20
113.71273357818229
 30
0.0
  0
VERTEX
  8
001
 62
               3
  5
12D
 10
415.13851475241637
 20
113.46813095300521
 30
0.0
  0
VERTEX
  8
001
 62
               3
  5
12E
 10
415.14727814126547
 20
113.19622639094821
 30
0.0
  0
VERTEX
  8
001
 62
               3
  5
12F
 10
415.15167619424028
 20
112.92415647835412
 30
0.0
  0
SEQEND
  8
001
  5
130
  0
POLYLINE
  8
001
 62
               3
  5
131
 66
               1
 10
0.0
 20
0.0
 30
0.0
  0
VERTEX
  8
001
 62
               3
  5
132
 10
415.15167619424017
 20
108.92415647835412
 30
0.0
  0
VERTEX
  8
001
 62
               3
  5
133
 10
415.14801953229562
 20
108.67893215691271
 30
0.0
  0
VERTEX
  8
001
 62
               3
  5
134
 10
415.14093830914743
 20
108.4338201408157
 30
0.0
  0
VERTEX
  8
001
 62
               3
  5
135
 10
415.12808382999935
 20
108.19542919158449
 30
0.0
  0
VERTEX
  8
001
 62
               3
  5
136
 10
415.10911505271889
 20
107.95742360092088
 30
0.0
  0
VERTEX
  8
001
 62
               3
  5
137
 10
415.08571287800982
 20
107.73286282709942
 30
0.0
  0
VERTEX
  8
001
 62
               3
  5
138
 10
415.05642478775627
 20
107.50898502398097
 30
0.0
  0
VERTEX
  8
001
 62
               3
  5
139
 10
415.02352948754458
 20
107.30379548814334
 30
0.0
  0
VERTEX
  8
001
 62
               3
  5
13A
 10
414.98385502861424
 20
107.09987223093601
 30
0.0
  0
VERTEX
  8
001
 62
               3
  5
13B
 10
414.94130494670736
 20
106.917746532862
 30
0.0
  0
VERTEX
  8
001
 62
               3
  5
13C
 10
414.89108556948048
 20
106.7373904625189
 30
0.0
  0
VERTEX
  8
001
 62
               3
  5
13D
 10
414.84044761510779
 20
106.58406571638717
 30
0.0
  0
VERTEX
  8
001
 62
               3
  5
13E
 10
414.78065726337917
 20
106.43463477768827
 30
0.0
  0
VERTEX
  8
001
 62
               3
  5
13F
 10
414.72049654568997
 20
106.31170847625768
 30
0.0
  0
VERTEX
  8
001
 62
               3
  5
140
 10
414.65009205681997
 20
106.19279502004895
 30
0.0
  0
VERTEX
  8
001
 62
               3
  5
141
 10
414.58429046295686
 20
106.10209508959116
 30
0.0
  0
VERTEX
  8
001
 62
               3
  5
142
 10
414.50546527706985
 20
106.02634299183742
 30
0.0
  0
VERTEX
  8
001
 62
               3
  5
143
 10
414.38555692306744
 20
105.96459629543011
 30
0.0
  0
VERTEX
  8
001
 62
               3
  5
144
 10
414.25152002687332
 20
105.92415647835412
 30
0.0
  0
SEQEND
  8
001
  5
145
  0
POLYLINE
  8
001
 62
               3
  5
146
 66
               1
 10
0.0
 20
0.0
 30
0.0
  0
VERTEX
  8
001
 62
               3
  5
147
 10
324.26713405422595
 20
112.92415647835412
 30
0.0
  0
VERTEX
  8
001
 62
               3
  5
148
 10
324.2707907161705
 20
113.16938079979553
 30
0.0
  0
VERTEX
  8
001
 62
               3
  5
149
 10
324.27787193931874
 20
113.41449281589254
 30
0.0
  0
VERTEX
  8
001
 62
               3
  5
14A
 10
324.29072641846676
 20
113.65288376512375
 30
0.0
  0
VERTEX
  8
001
 62
               3
  5
14B
 10
324.30969519574722
 20
113.89088935578737
 30
0.0
  0
VERTEX
  8
001
 62
               3
  5
14C
 10
324.3330973704563
 20
114.11545012960882
 30
0.0
  0
VERTEX
  8
001
 62
               3
  5
14D
 10
324.36238546070985
 20
114.33932793272729
 30
0.0
  0
VERTEX
  8
001
 62
               3
  5
14E
 10
324.39528076092154
 20
114.54451746856491
 30
0.0
  0
VERTEX
  8
001
 62
               3
  5
14F
 10
324.43495521985187
 20
114.74844072577221
 30
0.0
  0
VERTEX
  8
001
 62
               3
  5
150
 10
324.47750530175875
 20
114.93056642384624
 30
0.0
  0
VERTEX
  8
001
 62
               3
  5
151
 10
324.52772467898563
 20
115.11092249418934
 30
0.0
  0
VERTEX
  8
001
 62
               3
  5
152
 10
324.57836263335832
 20
115.26424724032107
 30
0.0
  0
VERTEX
  8
001
 62
               3
  5
153
 10
324.63815298508695
 20
115.41367817901997
 30
0.0
  0
VERTEX
  8
001
 62
               3
  5
154
 10
324.69831370277615
 20
115.53660448045056
 30
0.0
  0
VERTEX
  8
001
 62
               3
  5
155
 10
324.76871819164614
 20
115.65551793665929
 30
0.0
  0
VERTEX
  8
001
 62
               3
  5
156
 10
324.83451978550926
 20
115.74621786711708
 30
0.0
  0
VERTEX
  8
001
 62
               3
  5
157
 10
324.91334497139627
 20
115.82196996487082
 30
0.0
  0
VERTEX
  8
001
 62
               3
  5
158
 10
325.03325332539873
 20
115.88371666127814
 30
0.0
  0
VERTEX
  8
001
 62
               3
  5
159
 10
325.16729022159285
 20
115.92415647835412
 30
0.0
  0
SEQEND
  8
001
  5
15A
  0
POLYLINE
  8
001
 62
               3
  5
15B
 66
               1
 10
0.0
 20
0.0
 30
0.0
  0
VERTEX
  8
001
 62
               3
  5
15C
 10
325.16729022159291
 20
105.92415647835412
 30
0.0
  0
VERTEX
  8
001
 62
               3
  5
15D
 10
325.07920115229717
 20
105.94125317232331
 30
0.0
  0
VERTEX
  8
001
 62
               3
  5
15E
 10
324.99618919022203
 20
105.96953715751705
 30
0.0
  0
VERTEX
  8
001
 62
               3
  5
15F
 10
324.90967261524406
 20
106.02764024066171
 30
0.0
  0
VERTEX
  8
001
 62
               3
  5
160
 10
324.83550560191662
 20
106.104270223499
 30
0.0
  0
VERTEX
  8
001
 62
               3
  5
161
 10
324.75584318117899
 20
106.21256892782505
 30
0.0
  0
VERTEX
  8
001
 62
               3
  5
162
 10
324.6891982595468
 20
106.32803523968423
 30
0.0
  0
VERTEX
  8
001
 62
               3
  5
163
 10
324.6193179648514
 20
106.47876401341824
 30
0.0
  0
VERTEX
  8
001
 62
               3
  5
164
 10
324.56074824772759
 20
106.63469713833274
 30
0.0
  0
VERTEX
  8
001
 62
               3
  5
165
 10
324.50402259931002
 20
106.81808517990792
 30
0.0
  0
VERTEX
  8
001
 62
               3
  5
166
 10
324.45653028323113
 20
107.00393747260702
 30
0.0
  0
VERTEX
  8
001
 62
               3
  5
167
 10
324.41112561590745
 20
107.21799112948673
 30
0.0
  0
VERTEX
  8
001
 62
               3
  5
168
 10
324.3736889660218
 20
107.43361642225999
 30
0.0
  0
VERTEX
  8
001
 62
               3
  5
169
 10
324.34164004047108
 20
107.66210655634472
 30
0.0
  0
VERTEX
  8
001
 62
               3
  5
16A
 10
324.31603552201273
 20
107.89141597331368
 30
0.0
  0
VERTEX
  8
001
 62
               3
  5
16B
 10
324.29491027661714
 20
108.13557937852596
 30
0.0
  0
VERTEX
  8
001
 62
               3
  5
16C
 10
324.28029549604992
 20
108.38018200370304
 30
0.0
  0
VERTEX
  8
001
 62
               3
  5
16D
 10
324.27153210720081
 20
108.65208656576003
 30
0.0
  0
VERTEX
  8
001
 62
               3
  5
16E
 10
324.26713405422601
 20
108.92415647835412
 30
0.0
  0
SEQEND
  8
001
  5
16F
  0
POLYLINE
  8
001
 62
               3
  5
170
 66
               1
 10
0.0
 20
0.0
 30
0.0
  0
VERTEX
  8
001
 62
               3
  5
171
 10
389.70940512423306
 20
147.81508708469732
 30
0.0
  0
VERTEX
  8
001
 62
               3
  5
172
 10
390.95940512423306
 20
147.4102112931638
 30
0.0
  0
VERTEX
  8
001
 62
               3
  5
173
 10
392.20940512423306
 20
147.00533550163024
 30
0.0
  0
VERTEX
  8
001
 62
               3
  5
174
 10
392.68931628863419
 20
146.8476187670083
 30
0.0
  0
VERTEX
  8
001
 62
               3
  5
175
 10
393.16475163853841
 20
146.67771252405723
 30
0.0
  0
VERTEX
  8
001
 62
               3
  5
176
 10
393.62967030012578
 20
146.48663032412898
 30
0.0
  0
VERTEX
  8
001
 62
               3
  5
177
 10
394.08480564486837
 20
146.27270491326172
 30
0.0
  0
VERTEX
  8
001
 62
               3
  5
178
 10
394.60230465940504
 20
145.99478062974654
 30
0.0
  0
VERTEX
  8
001
 62
               3
  5
179
 10
395.100822750894
 20
145.68423711388445
 30
0.0
  0
VERTEX
  8
001
 62
               3
  5
17A
 10
395.57953877634401
 20
145.33527757623955
 30
0.0
  0
VERTEX
  8
001
 62
               3
  5
17B
 10
396.02869863524126
 20
144.94918102452382
 30
0.0
  0
VERTEX
  8
001
 62
               3
  5
17C
 10
396.36469995576397
 20
144.6112464301643
 30
0.0
  0
VERTEX
  8
001
 62
               3
  5
17D
 10
396.67478848842103
 20
144.24936666693642
 30
0.0
  0
VERTEX
  8
001
 62
               3
  5
17E
 10
396.96215448963829
 20
143.85478580454546
 30
0.0
  0
VERTEX
  8
001
 62
               3
  5
17F
 10
397.21511311466639
 20
143.43747976858091
 30
0.0
  0
VERTEX
  8
001
 62
               3
  5
180
 10
397.38432920707163
 20
143.1013588745069
 30
0.0
  0
VERTEX
  8
001
 62
               3
  5
181
 10
397.52991127943909
 20
142.75433355110036
 30
0.0
  0
VERTEX
  8
001
 62
               3
  5
182
 10
397.65319947995818
 20
142.39051042991423
 30
0.0
  0
VERTEX
  8
001
 62
               3
  5
183
 10
397.74936421386013
 20
142.01865246365654
 30
0.0
  0
VERTEX
  8
001
 62
               3
  5
184
 10
397.8182607272181
 20
141.63177186231812
 30
0.0
  0
VERTEX
  8
001
 62
               3
  5
185
 10
397.85740715069477
 20
141.24066199647794
 30
0.0
  0
VERTEX
  8
001
 62
               3
  5
186
 10
397.86485698779035
 20
141.08248155896285
 30
0.0
  0
VERTEX
  8
001
 62
               3
  5
187
 10
397.86749393701717
 20
140.92415647835415
 30
0.0
  0
SEQEND
  8
001
  5
188
  0
POLYLINE
  8
001
 62
               3
  5
189
 66
               1
 10
0.0
 20
0.0
 30
0.0
  0
VERTEX
  8
001
 62
               3
  5
18A
 10
389.70940512423306
 20
134.03322587201092
 30
0.0
  0
VERTEX
  8
001
 62
               3
  5
18B
 10
390.95940512423306
 20
134.43810166354444
 30
0.0
  0
VERTEX
  8
001
 62
               3
  5
18C
 10
392.20940512423306
 20
134.842977455078
 30
0.0
  0
VERTEX
  8
001
 62
               3
  5
18D
 10
392.68931628863419
 20
135.00069418969994
 30
0.0
  0
VERTEX
  8
001
 62
               3
  5
18E
 10
393.16475163853841
 20
135.17060043265101
 30
0.0
  0
VERTEX
  8
001
 62
               3
  5
18F
 10
393.62967030012578
 20
135.36168263257926
 30
0.0
  0
VERTEX
  8
001
 62
               3
  5
190
 10
394.08480564486837
 20
135.57560804344652
 30
0.0
  0
VERTEX
  8
001
 62
               3
  5
191
 10
394.60230465940504
 20
135.8535323269617
 30
0.0
  0
VERTEX
  8
001
 62
               3
  5
192
 10
395.100822750894
 20
136.16407584282379
 30
0.0
  0
VERTEX
  8
001
 62
               3
  5
193
 10
395.57953877634401
 20
136.51303538046869
 30
0.0
  0
VERTEX
  8
001
 62
               3
  5
194
 10
396.02869863524126
 20
136.89913193218442
 30
0.0
  0
VERTEX
  8
001
 62
               3
  5
195
 10
396.36469995576397
 20
137.23706652654394
 30
0.0
  0
VERTEX
  8
001
 62
               3
  5
196
 10
396.67478848842103
 20
137.59894628977182
 30
0.0
  0
VERTEX
  8
001
 62
               3
  5
197
 10
396.96215448963829
 20
137.99352715216278
 30
0.0
  0
VERTEX
  8
001
 62
               3
  5
198
 10
397.21511311466639
 20
138.41083318812733
 30
0.0
  0
VERTEX
  8
001
 62
               3
  5
199
 10
397.38432920707163
 20
138.74695408220134
 30
0.0
  0
VERTEX
  8
001
 62
               3
  5
19A
 10
397.52991127943909
 20
139.09397940560788
 30
0.0
  0
VERTEX
  8
001
 62
               3
  5
19B
 10
397.65319947995818
 20
139.45780252679401
 30
0.0
  0
VERTEX
  8
001
 62
               3
  5
19C
 10
397.74936421386013
 20
139.8296604930517
 30
0.0
  0
VERTEX
  8
001
 62
               3
  5
19D
 10
397.8182607272181
 20
140.21654109439012
 30
0.0
  0
VERTEX
  8
001
 62
               3
  5
19E
 10
397.85740715069477
 20
140.6076509602303
 30
0.0
  0
VERTEX
  8
001
 62
               3
  5
19F
 10
397.86485698779035
 20
140.76583139774539
 30
0.0
  0
VERTEX
  8
001
 62
               3
  5
1A0
 10
397.86749393701717
 20
140.92415647835409
 30
0.0
  0
SEQEND
  8
001
  5
1A1
  0
LINE
  8
001
 62
               3
  5
1A2
 10
344.70940512423283
 20
120.92415647835446
 30
0.0
 11
344.70940512423283
 21
148.92415647835435
 31
0.0
  0
ARC
  8
001
 62
               3
  5
1A3
 10
386.70940512423306
 20
148.92415647835435
 30
0.0
 40
2.9999999999999964
 50
0.0000000000000127
 51
90.000000000000014
  0
ARC
  8
001
 62
               3
  5
1A4
 10
347.70940512423283
 20
148.92415647835435
 30
0.0
 40
2.9999999999999964
 50
90.0
 51
180.0
  0
LINE
  8
001
 62
               3
  5
1A5
 10
389.70940512423306
 20
148.92415647835435
 30
0.0
 11
389.70940512423306
 21
120.92415647835446
 31
0.0
  0
ARC
  8
001
 62
               3
  5
1A6
 10
386.70940512423306
 20
120.92415647835446
 30
0.0
 40
3.0
 50
270.0
 51
0.0
  0
ARC
  8
001
 62
               3
  5
1A7
 10
347.70940512423283
 20
120.92415647835446
 30
0.0
 40
3.0
 50
180.0
 51
270.0
  0
LINE
  8
001
 62
               3
  5
1A8
 10
347.70940512423306
 20
54.924156478354121
 30
0.0
 11
367.70940512423306
 21
54.924156478354121
 31
0.0
  0
LINE
  8
001
 62
               3
  5
1A9
 10
367.70940512423306
 20
55.924156478354121
 30
0.0
 11
367.70940512423306
 21
54.924156478354121
 31
0.0
  0
LINE
  8
001
 62
               3
  5
1AA
 10
371.70940512423306
 20
55.924156478354121
 30
0.0
 11
371.70940512423306
 21
54.924156478354121
 31
0.0
  0
ARC
  8
001
 62
               3
  5
1AB
 10
386.70940512423306
 20
57.924156478354121
 30
0.0
 40
3.0
 50
270.0
 51
318.18968510422121
  0
LINE
  8
001
 62
               3
  5
1AC
 10
371.70940512423306
 20
54.924156478354121
 30
0.0
 11
386.70940512423306
 21
54.924156478354121
 31
0.0
  0
LINE
  8
001
 62
               3
  5
1AD
 10
94.079655812650003
 20
71.124658994089373
 30
0.0
 11
100.39406368530567
 21
71.124658994089373
 31
0.0
  0
CIRCLE
  8
001
 62
               3
  5
1AE
 10
105.07965581265
 20
65.924156478354121
 30
0.0
 40
7.0
  0
ARC
  8
001
 62
               3
  5
1AF
 10
105.07965581265
 20
65.924156478354121
 30
0.0
 40
10.999999999999886
 50
180.0
 51
313.34175822722273
  0
ARC
  8
001
 62
               3
  5
1B0
 10
120.07965581265
 20
65.924156478354121
 30
0.0
 40
7.9999999999998863
 50
270.0
 51
0.0
  0
ARC
  8
001
 62
               3
  5
1B1
 10
92.002958982028076
 20
60.924156478354234
 30
0.0
 40
3.0
 50
20.924832427638037
 51
90.0
  0
LINE
  8
001
 62
               3
  5
1B2
 10
120.07965581265
 20
57.924156478354234
 30
0.0
 11
112.62949024792073
 21
57.924156478354234
 31
0.0
  0
ARC
  8
001
 62
               3
  5
1B3
 10
129.87761478378263
 20
60.924156478354234
 30
0.0
 40
3.0
 50
90.0
 51
152.96430821058806
  0
LINE
  8
001
 62
               3
  5
1B4
 10
82.079655812649889
 20
63.924156478354234
 30
0.0
 11
92.002958982028076
 21
63.924156478354234
 31
0.0
  0
LINE
  8
001
 62
               3
  5
1B5
 10
130.07965581265
 20
63.924156478354234
 30
0.0
 11
129.87761478378263
 21
63.924156478354234
 31
0.0
  0
LINE
  8
001
 62
               3
  5
1B6
 10
128.07965581265
 20
71.124658994089373
 30
0.0
 11
128.07965581265
 21
65.924156478354121
 31
0.0
  0
LINE
  8
001
 62
               3
  5
1B7
 10
94.079655812650003
 20
71.124658994089373
 30
0.0
 11
94.079655812650003
 21
65.924156478354121
 31
0.0
  0
LINE
  8
001
 62
               3
  5
1B8
 10
259.87915329691475
 20
151.92415647835418
 30
0.0
 11
259.87915329691475
 21
145.60974860569851
 31
0.0
  0
ARC
  8
001
 62
               3
  5
1B9
 10
265.07965581265
 20
140.92415647835418
 30
0.0
 40
10.999999999999886
 50
316.65824177277733
 51
90.000000000000014
  0
ARC
  8
001
 62
               3
  5
1BA
 10
265.07965581265
 20
125.92415647835418
 30
0.0
 40
7.9999999999998863
 50
270.0
 51
0.0
  0
ARC
  8
001
 62
               3
  5
1BB
 10
270.07965581264978
 20
154.0008533089761
 30
0.0
 40
3.0
 50
180.0
 51
249.07516757236195
  0
LINE
  8
001
 62
               3
  5
1BC
 10
273.07965581264978
 20
125.92415647835418
 30
0.0
 11
273.07965581264978
 21
133.37432204308345
 31
0.0
  0
ARC
  8
001
 62
               3
  5
1BD
 10
270.07965581264978
 20
116.12619750722155
 30
0.0
 40
3.0
 50
117.03569178941194
 51
180.0
  0
LINE
  8
001
 62
               3
  5
1BE
 10
267.07965581264978
 20
163.92415647835429
 30
0.0
 11
267.07965581264978
 21
154.0008533089761
 31
0.0
  0
LINE
  8
001
 62
               3
  5
1BF
 10
259.87915329691475
 20
117.92415647835418
 30
0.0
 11
265.07965581265
 21
117.92415647835418
 31
0.0
  0
LINE
  8
001
 62
               3
  5
1C0
 10
259.87915329691475
 20
151.92415647835418
 30
0.0
 11
265.07965581265
 21
151.92415647835418
 31
0.0
  0
LINE
  8
001
 62
               3
  5
1C1
 10
267.07965581264978
 20
115.92415647835418
 30
0.0
 11
267.07965581264978
 21
116.12619750722155
 31
0.0
  0
LINE
  8
001
  6
CENTER
  5
1C2
 10
220.07965581265
 20
170.92415647835418
 30
0.0
 11
220.07965581265
 21
50.924156478354121
 31
0.0
  0
LINE
  8
001
  6
CENTER
  5
1C3
 10
369.70940512423306
 20
170.92415647835418
 30
0.0
 11
369.70940512423306
 21
49.924156478354121
 31
0.0
  0
LINE
  8
001
  6
CENTER
  5
1C4
 10
225.07965581265
 20
110.92415647835418
 30
0.0
 11
75.079655812650003
 21
110.92415647835418
 31
0.0
  0
LINE
  8
001
  6
CENTER
  5
1C5
 10
279.59795239907442
 20
265.19200526114219
 30
0.0
 11
75.883906288853495
 21
265.19200526114219
 31
0.0
  0
LINE
  8
001
  6
CENTER
  5
1C6
 10
220.07965581265
 20
317.19200526114219
 30
0.0
 11
220.07965581265
 21
213.19200526114207
 31
0.0
  0
LINE
  8
001
 62
               3
  5
1C7
 10
82.079655812650003
 20
312.19200526114219
 30
0.0
 11
220.07965581265
 21
312.19200526114219
 31
0.0
  0
LINE
  8
001
 62
               3
  5
1C8
 10
340.9094051242331
 20
132.42415647835412
 30
0.0
 11
334.50940512423318
 21
132.42415647835401
 31
0.0
  0
LINE
  8
001
 62
               3
  5
1C9
 10
340.9094051242331
 20
119.42415647835412
 30
0.0
 11
334.50940512423318
 21
119.42415647835423
 31
0.0
  0
LINE
  8
001
 62
               3
  5
1CA
 10
333.70940512423306
 20
120.22415647835408
 30
0.0
 11
333.70940512423306
 21
131.62415647835417
 31
0.0
  0
LINE
  8
001
 62
               3
  5
1CB
 10
341.70940512423306
 20
120.22415647835408
 30
0.0
 11
341.70940512423306
 21
131.62415647835394
 31
0.0
  0
LINE
  8
001
 62
               3
  5
1CC
 10
371.70940512423306
 20
128.67415647835435
 30
0.0
 11
371.70940512423306
 21
123.17415647835412
 31
0.0
  0
LINE
  8
001
 62
               3
  5
1CD
 10
370.45940512423306
 20
121.92415647835412
 30
0.0
 11
371.70940512423306
 21
123.17415647835401
 31
0.0
  0
LINE
  8
001
 62
               3
  5
1CE
 10
371.70940512423306
 20
128.67415647835435
 30
0.0
 11
370.45940512423306
 21
129.92415647835423
 31
0.0
  0
LINE
  8
001
 62
               3
  5
1CF
 10
370.45940512423306
 20
121.92415647835412
 30
0.0
 11
370.45940512423306
 21
129.92415647835412
 31
0.0
  0
ARC
  8
001
 62
               3
  5
1D0
 10
334.50940512423301
 20
131.62415647835417
 30
0.0
 40
0.8
 50
90.0
 51
180.0
  0
ARC
  8
001
 62
               3
  5
1D1
 10
334.50940512423301
 20
120.22415647835408
 30
0.0
 40
0.8
 50
180.0
 51
270.0
  0
ARC
  8
001
 62
               3
  5
1D2
 10
340.9094051242331
 20
120.22415647835408
 30
0.0
 40
0.8
 50
270.0
 51
0.0
  0
ARC
  8
001
 62
               3
  5
1D3
 10
340.9094051242331
 20
131.62415647835417
 30
0.0
 40
0.8
 50
0.0
 51
90.0
  0
LINE
  8
001
 62
               3
  5
1D4
 10
344.4094051242331
 20
147.42415647835412
 30
0.0
 11
338.00940512423318
 21
147.42415647835401
 31
0.0
  0
LINE
  8
001
 62
               3
  5
1D5
 10
344.4094051242331
 20
134.42415647835412
 30
0.0
 11
338.00940512423318
 21
134.42415647835423
 31
0.0
  0
LINE
  8
001
 62
               3
  5
1D6
 10
337.20940512423306
 20
135.22415647835408
 30
0.0
 11
337.20940512423306
 21
146.62415647835417
 31
0.0
  0
ARC
  8
001
 62
               3
  5
1D7
 10
338.00940512423301
 20
146.62415647835417
 30
0.0
 40
0.8
 50
90.0
 51
180.0
  0
ARC
  8
001
 62
               3
  5
1D8
 10
338.00940512423301
 20
135.22415647835408
 30
0.0
 40
0.8
 50
180.0
 51
270.0
  0
LINE
  8
001
 62
               3
  5
1D9
 10
102.10918867766941
 20
64.209156478354117
 30
0.0
 11
102.10918867766941
 21
67.639156478354124
 31
0.0
  0
LINE
  8
001
 62
               3
  5
1DA
 10
108.0501229476306
 20
67.639156478354124
 30
0.0
 11
108.0501229476306
 21
64.209156478354117
 31
0.0
  0
LINE
  8
001
 62
               3
  5
1DB
 10
108.0501229476306
 20
64.209156478354117
 30
0.0
 11
105.07965581264997
 21
62.494156478354121
 31
0.0
  0
LINE
  8
001
 62
               3
  5
1DC
 10
105.07965581265
 20
69.354156478354128
 30
0.0
 11
102.10918867766938
 21
67.639156478354124
 31
0.0
  0
LINE
  8
001
 62
               3
  5
1DD
 10
105.07965581265
 20
69.354156478354128
 30
0.0
 11
108.05012294763063
 21
67.639156478354124
 31
0.0
  0
LINE
  8
001
 62
               3
  5
1DE
 10
105.07965581265
 20
62.494156478354114
 30
0.0
 11
102.10918867766938
 21
64.209156478354117
 31
0.0
  0
CIRCLE
  8
001
 62
               3
  5
1DF
 10
105.07965581265
 20
65.924156478354121
 30
0.0
 40
6.5
  0
CIRCLE
  8
001
 62
               3
  5
1E0
 10
105.07965581265
 20
65.924156478354121
 30
0.0
 40
3.4299999999999988
  0
LINE
  8
001
 62
               3
  5
1E1
 10
117.10918867766941
 20
64.209156478354117
 30
0.0
 11
117.10918867766941
 21
67.639156478354124
 31
0.0
  0
LINE
  8
001
 62
               3
  5
1E2
 10
123.0501229476306
 20
67.639156478354124
 30
0.0
 11
123.0501229476306
 21
64.209156478354117
 31
0.0
  0
LINE
  8
001
 62
               3
  5
1E3
 10
123.0501229476306
 20
64.209156478354117
 30
0.0
 11
120.07965581264997
 21
62.494156478354121
 31
0.0
  0
LINE
  8
001
 62
               3
  5
1E4
 10
120.07965581265
 20
69.354156478354128
 30
0.0
 11
117.10918867766938
 21
67.639156478354124
 31
0.0
  0
LINE
  8
001
 62
               3
  5
1E5
 10
120.07965581265
 20
69.354156478354128
 30
0.0
 11
123.05012294763063
 21
67.639156478354124
 31
0.0
  0
LINE
  8
001
 62
               3
  5
1E6
 10
120.07965581265
 20
62.494156478354114
 30
0.0
 11
117.10918867766938
 21
64.209156478354117
 31
0.0
  0
CIRCLE
  8
001
 62
               3
  5
1E7
 10
120.07965581265
 20
65.924156478354121
 30
0.0
 40
6.5
  0
CIRCLE
  8
001
 62
               3
  5
1E8
 10
120.07965581265
 20
65.924156478354121
 30
0.0
 40
3.4299999999999988
  0
LINE
  8
001
 62
               3
  5
1E9
 10
262.10918867766929
 20
139.2091564783542
 30
0.0
 11
262.10918867766929
 21
142.63915647835421
 31
0.0
  0
LINE
  8
001
 62
               3
  5
1EA
 10
268.05012294763071
 20
142.63915647835415
 30
0.0
 11
268.05012294763071
 21
139.20915647835415
 31
0.0
  0
LINE
  8
001
 62
               3
  5
1EB
 10
268.05012294763071
 20
139.2091564783542
 30
0.0
 11
265.07965581265006
 21
137.4941564783542
 31
0.0
  0
LINE
  8
001
 62
               3
  5
1EC
 10
265.07965581265
 20
144.35415647835418
 30
0.0
 11
262.10918867766935
 21
142.63915647835418
 31
0.0
  0
LINE
  8
001
 62
               3
  5
1ED
 10
265.07965581265
 20
144.35415647835418
 30
0.0
 11
268.0501229476306
 21
142.63915647835418
 31
0.0
  0
LINE
  8
001
 62
               3
  5
1EE
 10
265.07965581265
 20
137.49415647835417
 30
0.0
 11
262.10918867766935
 21
139.20915647835417
 31
0.0
  0
CIRCLE
  8
001
 62
               3
  5
1EF
 10
265.07965581265
 20
140.92415647835418
 30
0.0
 40
6.5
  0
CIRCLE
  8
001
 62
               3
  5
1F0
 10
265.07965581265
 20
140.92415647835418
 30
0.0
 40
3.4299999999999988
  0
LINE
  8
001
 62
               3
  5
1F1
 10
262.10918867766929
 20
124.2091564783542
 30
0.0
 11
262.10918867766929
 21
127.63915647835421
 31
0.0
  0
LINE
  8
001
 62
               3
  5
1F2
 10
268.05012294763071
 20
127.63915647835415
 30
0.0
 11
268.05012294763071
 21
124.20915647835415
 31
0.0
  0
LINE
  8
001
 62
               3
  5
1F3
 10
268.05012294763071
 20
124.2091564783542
 30
0.0
 11
265.07965581265006
 21
122.4941564783542
 31
0.0
  0
LINE
  8
001
 62
               3
  5
1F4
 10
265.07965581265
 20
129.35415647835418
 30
0.0
 11
262.10918867766935
 21
127.63915647835418
 31
0.0
  0
LINE
  8
001
 62
               3
  5
1F5
 10
265.07965581265
 20
129.35415647835418
 30
0.0
 11
268.0501229476306
 21
127.63915647835418
 31
0.0
  0
LINE
  8
001
 62
               3
  5
1F6
 10
265.07965581265
 20
122.49415647835417
 30
0.0
 11
262.10918867766935
 21
124.20915647835417
 31
0.0
  0
CIRCLE
  8
001
 62
               3
  5
1F7
 10
265.07965581265
 20
125.92415647835418
 30
0.0
 40
6.5
  0
CIRCLE
  8
001
 62
               3
  5
1F8
 10
265.07965581265
 20
125.92415647835418
 30
0.0
 40
3.4299999999999988
  0
LINE
  8
001
 62
               3
  5
1F9
 10
271.57965581265
 20
239.89200526114223
 30
0.0
 11
271.57965581264989
 21
233.49200526114231
 31
0.0
  0
LINE
  8
001
 62
               3
  5
1FA
 10
270.77965581265005
 20
232.69200526114219
 30
0.0
 11
259.37965581264996
 21
232.69200526114219
 31
0.0
  0
ARC
  8
001
 62
               3
  5
1FB
 10
259.37965581264996
 20
233.49200526114214
 30
0.0
 40
0.8
 50
180.0
 51
270.0
  0
ARC
  8
001
 62
               3
  5
1FC
 10
270.77965581265005
 20
233.49200526114214
 30
0.0
 40
0.8
 50
270.0
 51
0.0
  0
LINE
  8
001
 62
               3
  5
1FD
 10
270.77965581265005
 20
229.19200526114219
 30
0.0
 11
259.37965581264996
 21
229.19200526114219
 31
0.0
  0
ARC
  8
001
 62
               3
  5
1FE
 10
259.37965581264996
 20
229.99200526114214
 30
0.0
 40
0.8
 50
180.0
 51
270.0
  0
ARC
  8
001
 62
               3
  5
1FF
 10
270.77965581265005
 20
229.99200526114214
 30
0.0
 40
0.8
 50
270.0
 51
0.0
  0
LINE
  8
001
 62
               3
  5
200
 10
258.57965581265
 20
232.69200526114219
 30
0.0
 11
258.57965581265006
 21
229.99200526114231
 31
0.0
  0
LINE
  8
001
 62
               3
  5
201
 10
271.57965581265
 20
232.69200526114219
 30
0.0
 11
271.57965581264995
 21
229.99200526114231
 31
0.0
  0
LINE
  8
001
 62
               3
  5
202
 10
128.07965581265
 20
71.124658994089373
 30
0.0
 11
123.9789857017247
 21
71.124658994089373
 31
0.0
  0
LINE
  8
001
 62
               3
  5
203
 10
116.18032592357531
 20
71.124658994089373
 30
0.0
 11
109.76524793999434
 21
71.124658994089373
 31
0.0
  0
LINE
  8
001
 62
               3
  5
204
 10
259.87915329691475
 20
117.92415647835418
 30
0.0
 11
259.87915329691475
 21
122.02482658927948
 31
0.0
  0
LINE
  8
001
 62
               3
  5
205
 10
259.87915329691475
 20
129.82348636742887
 30
0.0
 11
259.87915329691475
 21
136.23856435100984
 31
0.0
  0
LINE
  8
001
 62
               3
  5
206
 10
371.70940512423306
 20
144.24765647835409
 30
0.0
 11
367.70940512423306
 21
144.24765647835409
 31
0.0
  0
LINE
  8
001
 62
               3
  5
207
 10
371.70940512423306
 20
144.92415647835412
 30
0.0
 11
367.70940512423306
 21
144.92415647835412
 31
0.0
  0
LINE
  8
001
 62
               3
  5
208
 10
371.70940512423306
 20
136.92415647835412
 30
0.0
 11
367.70940512423306
 21
136.92415647835412
 31
0.0
  0
LINE
  8
001
 62
               3
  5
209
 10
371.70940512423306
 20
137.60065647835415
 30
0.0
 11
367.70940512423306
 21
137.60065647835415
 31
0.0
  0
ARC
  8
001
 62
               3
  5
20A
 10
344.4094051242331
 20
135.22415647835419
 30
0.0
 40
0.8
 50
270.0
 51
292.02431283702151
  0
ARC
  8
001
 62
               3
  5
20B
 10
344.4094051242331
 20
146.62415647835417
 30
0.0
 40
0.8
 50
67.975687162978488
 51
90.0
  0
LINE
  8
001
 62
               3
  5
20C
 10
370.45940512423306
 20
129.92415647835412
 30
0.0
 11
367.70940512423306
 21
129.92415647835412
 31
0.0
  0
LINE
  8
001
 62
               3
  5
20D
 10
344.70940512423283
 20
129.92415647835412
 30
0.0
 11
341.70940512423311
 21
129.92415647835412
 31
0.0
  0
LINE
  8
001
 62
               3
  5
20E
 10
370.45940512423306
 20
121.92415647835412
 30
0.0
 11
367.70940512423306
 21
121.92415647835412
 31
0.0
  0
LINE
  8
001
 62
               3
  5
20F
 10
344.70940512423283
 20
121.92415647835412
 30
0.0
 11
341.70940512423311
 21
121.92415647835412
 31
0.0
  0
LINE
  8
001
 62
               3
  5
210
 10
371.13590512423309
 20
129.24765647835409
 30
0.0
 11
367.70940512423306
 21
129.24765647835409
 31
0.0
  0
LINE
  8
001
 62
               3
  5
211
 10
344.70940512423283
 20
129.24765647835409
 30
0.0
 11
341.70940512423306
 21
129.24765647835409
 31
0.0
  0
LINE
  8
001
 62
               3
  5
212
 10
371.13590512423309
 20
122.60065647835415
 30
0.0
 11
367.70940512423306
 21
122.60065647835415
 31
0.0
  0
LINE
  8
001
 62
               3
  5
213
 10
344.70940512423283
 20
122.60065647835415
 30
0.0
 11
341.70940512423306
 21
122.60065647835415
 31
0.0
  0
ARC
  8
001
 62
               3
  5
214
 10
220.07965581265
 20
265.19200526114219
 30
0.0
 40
47.0
 50
199.87687407007877
 51
357.56114530905012
  0
ARC
  8
001
 62
               3
  5
215
 10
220.07965581265
 20
265.19200526114219
 30
0.0
 40
47.0
 50
2.4388546909498552
 51
160.12312592992117
  0
LINE
  8
001
 62
               3
  5
216
 10
269.07965581265
 20
267.19200526114219
 30
0.0
 11
269.07965581265
 21
263.19200526114219
 31
0.0
  0
LINE
  8
001
 62
               3
  5
217
 10
268.40315581264997
 20
267.19200526114219
 30
0.0
 11
268.40315581264997
 21
263.19200526114219
 31
0.0
  0
LINE
  8
001
 62
               3
  5
218
 10
261.75615581265004
 20
267.19200526114219
 30
0.0
 11
261.75615581265004
 21
263.19200526114219
 31
0.0
  0
LINE
  8
001
 62
               3
  5
219
 10
261.07965581265
 20
267.19200526114219
 30
0.0
 11
261.07965581265
 21
263.19200526114219
 31
0.0
  0
LINE
  8
001
 62
               3
  5
21A
 10
258.57965581265
 20
238.22698953880774
 30
0.0
 11
258.57965581265006
 21
233.49200526114231
 31
0.0
  0
ARC
  8
001
 62
               3
  5
21B
 10
270.77965581264982
 20
239.89200526114223
 30
0.0
 40
0.8
 50
0.0
 51
22.024312837036607
  0
LINE
  8
001
 62
               3
  5
21C
 10
347.70940512423283
 20
133.37432204308334
 30
0.0
 11
367.70940512423306
 21
133.37432204308334
 31
0.0
  0
LINE
  8
001
 62
               3
  5
21D
 10
371.70940512423306
 20
133.37432204308334
 30
0.0
 11
386.70940512423306
 21
133.37432204308334
 31
0.0
  0
CIRCLE
  8
001
 62
               3
  5
21E
 10
220.07965581265
 20
265.19200526114219
 30
0.0
 40
37.0
  0
TEXT
  8
001
  5
21F
 10
461.91027341116353
 20
54.750881476589129
 30
0.0
 40
15.0
  1
2006.1.31
 41
0.6750000675000067
  0
TEXT
  8
001
  5
220
 10
461.91027341116353
 20
37.250881476589129
 30
0.0
 40
15.0
  1
FS-74CS
 41
0.5
  0
ENDSEC
  0
EOF
