  0
SECTION
  2
HEADER
  9
$ACADVER
  1
AC1009
  9
$DWGCODEPAGE
  3
dos932
  9
$INSBASE
 10
0.0
 20
0.0
 30
0.0
  9
$EXTMIN
 10
86.2103271484375
 20
36.734405517578125
 30
1.0000000000000000E+20
  9
$EXTMAX
 10
686.80902099609375
 20
303.27178955078125
 30
-1.0000000000000000E+20
  9
$LIMMIN
 10
0.0
 20
0.0
  9
$LIMMAX
 10
12.0
 20
9.0
  9
$ORTHOMODE
 70
               0
  9
$REGENMODE
 70
               1
  9
$FILLMODE
 70
               1
  9
$QTEXTMODE
 70
               0
  9
$MIRRTEXT
 70
               1
  9
$DRAGMODE
 70
               2
  9
$LTSCALE
 40
10.009978230794271
  9
$OSMODE
 70
               0
  9
$ATTMODE
 70
               1
  9
$TEXTSIZE
 40
3.2000000000000002
  9
$TRACEWID
 40
0.05
  9
$TEXTSTYLE
  7
STANDARD
  9
$CLAYER
  8
0
  9
$CELTYPE
  6
CONTINUOUS
  9
$CECOLOR
 62
             256
  9
$DIMSCALE
 40
1.0
  9
$DIMASZ
 40
0.18
  9
$DIMEXO
 40
0.0625
  9
$DIMDLI
 40
0.38
  9
$DIMRND
 40
0.0
  9
$DIMDLE
 40
0.0
  9
$DIMEXE
 40
0.18
  9
$DIMTP
 40
0.0
  9
$DIMTM
 40
0.0
  9
$DIMTXT
 40
0.18
  9
$DIMCEN
 40
0.09
  9
$DIMTSZ
 40
0.0
  9
$DIMTOL
 70
               0
  9
$DIMLIM
 70
               0
  9
$DIMTIH
 70
               1
  9
$DIMTOH
 70
               1
  9
$DIMSE1
 70
               0
  9
$DIMSE2
 70
               0
  9
$DIMTAD
 70
               0
  9
$DIMZIN
 70
               0
  9
$DIMBLK
  1

  9
$DIMASO
 70
               1
  9
$DIMSHO
 70
               1
  9
$DIMPOST
  1

  9
$DIMAPOST
  1

  9
$DIMALT
 70
               0
  9
$DIMALTD
 70
               2
  9
$DIMALTF
 40
25.399999999999999
  9
$DIMLFAC
 40
1.0
  9
$DIMTOFL
 70
               0
  9
$DIMTVP
 40
0.0
  9
$DIMTIX
 70
               0
  9
$DIMSOXD
 70
               0
  9
$DIMSAH
 70
               0
  9
$DIMBLK1
  1

  9
$DIMBLK2
  1

  9
$DIMSTYLE
  2
STANDARD
  9
$DIMCLRD
 70
               0
  9
$DIMCLRE
 70
               0
  9
$DIMCLRT
 70
               0
  9
$DIMTFAC
 40
1.0
  9
$DIMGAP
 40
0.09
  9
$LUNITS
 70
               2
  9
$LUPREC
 70
               4
  9
$AXISMODE
 70
               0
  9
$AXISUNIT
 10
0.0
 20
0.0
  9
$SKETCHINC
 40
0.1
  9
$FILLETRAD
 40
0.0
  9
$AUNITS
 70
               0
  9
$AUPREC
 70
               0
  9
$MENU
  1
acad
  9
$ELEVATION
 40
0.0
  9
$PELEVATION
 40
0.0
  9
$THICKNESS
 40
0.0
  9
$LIMCHECK
 70
               0
  9
$BLIPMODE
 70
               1
  9
$CHAMFERA
 40
0.0
  9
$CHAMFERB
 40
0.0
  9
$SKPOLY
 70
               0
  9
$TDCREATE
 40
0.000000000
  9
$TDUPDATE
 40
0.000000000
  9
$TDINDWG
 40
0.0000000000
  9
$TDUSRTIMER
 40
0.0000000000
  9
$USRTIMER
 70
               1
  9
$ANGBASE
 50
0.0
  9
$ANGDIR
 70
               0
  9
$PDMODE
 70
               0
  9
$PDSIZE
 40
0.0
  9
$PLINEWID
 40
0.0
  9
$COORDS
 70
               1
  9
$SPLFRAME
 70
               0
  9
$SPLINETYPE
 70
               6
  9
$SPLINESEGS
 70
               8
  9
$ATTDIA
 70
               0
  9
$ATTREQ
 70
               1
  9
$HANDLING
 70
               1
  9
$HANDSEED
  5
1F7
  9
$SURFTAB1
 70
               6
  9
$SURFTAB2
 70
               6
  9
$SURFTYPE
 70
               6
  9
$SURFU
 70
               6
  9
$SURFV
 70
               6
  9
$UCSNAME
  2

  9
$UCSORG
 10
0.0
 20
0.0
 30
0.0
  9
$UCSXDIR
 10
1.0
 20
0.0
 30
0.0
  9
$UCSYDIR
 10
0.0
 20
1.0
 30
0.0
  9
$PUCSNAME
  2

  9
$PUCSORG
 10
0.0
 20
0.0
 30
0.0
  9
$PUCSXDIR
 10
1.0
 20
0.0
 30
0.0
  9
$PUCSYDIR
 10
0.0
 20
1.0
 30
0.0
  9
$USERI1
 70
               0
  9
$USERI2
 70
               0
  9
$USERI3
 70
               0
  9
$USERI4
 70
               0
  9
$USERI5
 70
               0
  9
$USERR1
 40
0.0
  9
$USERR2
 40
0.0
  9
$USERR3
 40
0.0
  9
$USERR4
 40
0.0
  9
$USERR5
 40
0.0
  9
$WORLDVIEW
 70
               1
  9
$SHADEDGE
 70
               3
  9
$SHADEDIF
 70
              70
  9
$TILEMODE
 70
               1
  9
$MAXACTVP
 70
              16
  9
$PINSBASE
 10
0.0
 20
0.0
 30
0.0
  9
$PLIMCHECK
 70
               0
  9
$PEXTMIN
 10
1.0000000000000000E+20
 20
1.0000000000000000E+20
 30
1.0000000000000000E+20
  9
$PEXTMAX
 10
-1.0000000000000000E+20
 20
-1.0000000000000000E+20
 30
-1.0000000000000000E+20
  9
$PLIMMIN
 10
0.0
 20
0.0
  9
$PLIMMAX
 10
12.0
 20
9.0
  9
$UNITMODE
 70
               0
  9
$VISRETAIN
 70
               0
  9
$PLINEGEN
 70
               0
  9
$PSLTSCALE
 70
               1
  9
$TREEDEPTH
 70
            3020
  0
ENDSEC
  0
SECTION
  2
TABLES
  0
TABLE
  2
VPORT
 70
               1
  0
VPORT
  2
*ACTIVE
 70
               0
 10
0.0
 20
0.0
 11
1.0
 21
1.0
 12
386.50967407226562
 22
170.00309753417969
 13
0.0
 23
0.0
 14
1.0
 24
1.0
 15
0.0
 25
0.0
 16
0.0
 26
0.0
 36
1.0
 17
0.0
 27
0.0
 37
0.0
 40
358.6643320275038
 41
1.6912879999999999
 42
50.0
 43
0.0
 44
0.0
 50
0.0
 51
0.0
 71
               0
 72
             100
 73
               1
 74
               1
 75
               0
 76
               0
 77
               0
 78
               0
  0
ENDTAB
  0
TABLE
  2
LTYPE
 70
               5
  0
LTYPE
  2
CONTINUOUS
 70
              64
  3
Solid line
 72
              65
 73
               0
 40
0.0
  0
LTYPE
  2
DASHED
 70
              64
  3
DASHED
 72
              65
 73
               2
 40
0.75
 49
0.5
 49
-0.25
  0
LTYPE
  2
HIDDEN
 70
              64
  3
HIDDEN
 72
              65
 73
               2
 40
0.375
 49
0.25
 49
-0.125
  0
LTYPE
  2
CENTER
 70
              64
  3
CENTER
 72
              65
 73
               4
 40
2.0
 49
1.25
 49
-0.25
 49
0.25
 49
-0.25
  0
LTYPE
  2
PHANTOM
 70
              64
  3
PHANTOM
 72
              65
 73
               6
 40
2.5
 49
1.25
 49
-0.25
 49
0.25
 49
-0.25
 49
0.25
 49
-0.25
  0
ENDTAB
  0
TABLE
  2
LAYER
 70
               2
  0
LAYER
  2
0
 70
               0
 62
               7
  6
CONTINUOUS
  0
LAYER
  2
001
 70
               0
 62
               7
  6
CONTINUOUS
  0
ENDTAB
  0
TABLE
  2
STYLE
 70
               2
  0
STYLE
  2
STANDARD
 70
               0
 40
0.0
 41
1.0
 50
0.0
 71
               0
 42
0.2
  3
TXT
  4
BIGFONT
  0
STYLE
  2
TATEGAKI
 70
               4
 40
1.0
 41
1.0
 50
0.0
 71
               0
 42
0.2
  3
TXT
  4
BIGFONT
  0
ENDTAB
  0
TABLE
  2
VIEW
 70
               0
  0
ENDTAB
  0
TABLE
  2
UCS
 70
               0
  0
ENDTAB
  0
TABLE
  2
APPID
 70
               1
  0
APPID
  2
ACAD
 70
               0
  0
ENDTAB
  0
TABLE
  2
DIMSTYLE
 70
               1
  0
DIMSTYLE
  2
STANDARD
 70
               0
  3

  4

  5

  6

  7

 40
1.0
 41
0.18
 42
0.0625
 43
0.38
 44
0.18
 45
0.0
 46
0.0
 47
0.0
 48
0.0
 71
               0
 72
               0
 73
               1
 74
               1
 75
               0
 76
               0
 77
               0
 78
               0
140
0.18
141
0.09
142
0.0
143
25.399999999999999
144
1.0
145
0.0
146
1.0
147
0.09
170
               0
171
               2
172
               0
173
               0
174
               0
175
               0
176
               0
177
               0
178
               0
  0
ENDTAB
  0
ENDSEC
  0
SECTION
  2
BLOCKS
  0
ENDSEC
  0
SECTION
  2
ENTITIES
  0
LINE
  8
001
 62
               3
  5
23
 10
489.75761019454694
 20
103.73440001768506
 30
0.0
 11
509.75761019454717
 21
103.73440001768506
 31
0.0
  0
LINE
  8
001
 62
               3
  5
24
 10
528.75761019454694
 20
103.73440001768506
 30
0.0
 11
513.75761019454694
 21
103.73440001768506
 31
0.0
  0
ARC
  8
001
 62
               3
  5
25
 10
298.50173949106807
 20
43.73440001768472
 30
0.0
 40
1.0
 50
0.0
 51
90.0
  0
ARC
  8
001
 62
               3
  5
26
 10
276.7557727986532
 20
45.734400017684777
 30
0.0
 40
5.0
 50
14.47751218592947
 51
90.0
  0
LINE
  8
001
 62
               3
  5
27
 10
304.96862017647777
 20
44.73440001768472
 30
0.0
 11
284.50173949106812
 21
44.73440001768472
 31
0.0
  0
LINE
  8
001
 62
               3
  5
28
 10
304.96862017647777
 20
45.734400017684777
 30
0.0
 11
304.96862017647777
 21
44.73440001768472
 31
0.0
  0
LINE
  8
001
 62
               3
  5
29
 10
509.75761019454694
 20
137.73440001768495
 30
0.0
 11
489.75761019454671
 21
137.73440001768495
 31
0.0
  0
LINE
  8
001
 62
               3
  5
2A
 10
528.75761019454694
 20
137.73440001768495
 30
0.0
 11
513.75761019454694
 21
137.73440001768495
 31
0.0
  0
LINE
  8
001
 62
               3
  5
2B
 10
388.97526065425859
 20
226.27178102125765
 30
0.0
 11
399.50173949106795
 21
226.27178102125765
 31
0.0
  0
LINE
  8
001
 62
               3
  5
2C
 10
392.09779195177998
 20
271.27178102125765
 30
0.0
 11
399.50173949106784
 21
271.27178102125765
 31
0.0
  0
ARC
  8
001
 62
               3
  5
2D
 10
399.50173949106807
 20
229.27178102125765
 30
0.0
 40
3.0
 50
270.0
 51
0.0
  0
ARC
  8
001
 62
               3
  5
2E
 10
399.50173949106807
 20
268.27178102125765
 30
0.0
 40
3.0
 50
0.0000000000000127
 51
90.000000000000014
  0
ARC
  8
001
 62
               3
  5
2F
 10
388.97526065425859
 20
221.27178102125765
 30
0.0
 40
5.0
 50
90.000000000000028
 51
144.76558201541886
  0
LINE
  8
001
 62
               3
  5
30
 10
402.50173949106807
 20
249.27178102125765
 30
0.0
 11
402.50173949106807
 21
229.27178102125771
 31
0.0
  0
LINE
  8
001
 62
               3
  5
31
 10
290.50173949106807
 20
242.27178102125765
 30
0.0
 11
290.50173949106807
 21
260.27178102125765
 31
0.0
  0
LINE
  8
001
 62
               3
  5
32
 10
299.48046770903306
 20
265.27178102125765
 30
0.0
 11
295.50173949106807
 21
265.27178102125765
 31
0.0
  0
LINE
  8
001
 62
               3
  5
33
 10
299.48046770903306
 20
237.27178102125765
 30
0.0
 11
295.50173949106807
 21
237.27178102125765
 31
0.0
  0
ARC
  8
001
 62
               3
  5
34
 10
295.50173949106807
 20
260.27178102125765
 30
0.0
 40
5.0
 50
90.0
 51
180.0
  0
ARC
  8
001
 62
               3
  5
35
 10
295.50173949106807
 20
242.27178102125765
 30
0.0
 40
5.0
 50
180.0
 51
270.0
  0
ARC
  8
001
 62
               3
  5
36
 10
299.48046770903306
 20
268.27178102125765
 30
0.0
 40
3.0
 50
270.0
 51
340.12312592992117
  0
ARC
  8
001
 62
               3
  5
37
 10
299.48046770903306
 20
234.27178102125765
 30
0.0
 40
3.0
 50
19.876874070078827
 51
90.0
  0
LINE
  8
001
 62
               3
  5
38
 10
556.29972509718527
 20
101.73440001768472
 30
0.0
 11
513.75761019454717
 21
101.73440001768472
 31
0.0
  0
LINE
  8
001
 62
               3
  5
39
 10
467.21549529190702
 20
101.73440001768472
 30
0.0
 11
509.75761019454711
 21
101.73440001768472
 31
0.0
  0
LINE
  8
001
 62
               3
  5
3A
 10
467.21549506768338
 20
91.73440001768472
 30
0.0
 11
556.29972509718732
 21
91.73440001768472
 31
0.0
  0
LINE
  8
001
 62
               3
  5
3B
 10
509.75761019454694
 20
101.73440001768472
 30
0.0
 11
509.75761019454694
 21
151.73440001768472
 31
0.0
  0
LINE
  8
001
 62
               3
  5
3C
 10
513.75761019454694
 20
101.73440001768472
 30
0.0
 11
513.75761019454694
 21
151.73440001768472
 31
0.0
  0
LINE
  8
001
 62
               3
  5
3D
 10
557.19988126455428
 20
98.73440001768472
 30
0.0
 11
557.19988126455428
 21
94.73440001768472
 31
0.0
  0
LINE
  8
001
 62
               3
  5
3E
 10
466.31533912454006
 20
94.73440001768472
 30
0.0
 11
466.31533912454006
 21
98.73440001768472
 31
0.0
  0
POLYLINE
  8
001
 62
               3
  5
3F
 66
               1
 10
0.0
 20
0.0
 30
0.0
  0
VERTEX
  8
001
 62
               3
  5
40
 10
476.75761019454694
 20
98.73440001768472
 30
0.0
  0
VERTEX
  8
001
 62
               3
  5
41
 10
476.76220334328377
 20
98.975498835040128
 30
0.0
  0
VERTEX
  8
001
 62
               3
  5
42
 10
476.7710839800514
 20
99.216416068744721
 30
0.0
  0
VERTEX
  8
001
 62
               3
  5
43
 10
476.78720587614299
 20
99.450834170763017
 30
0.0
  0
VERTEX
  8
001
 62
               3
  5
44
 10
476.81095331245336
 20
99.684645491364066
 30
0.0
  0
VERTEX
  8
001
 62
               3
  5
45
 10
476.84024984577366
 20
99.905455780936606
 30
0.0
  0
VERTEX
  8
001
 62
               3
  5
46
 10
476.87679629189478
 20
100.12517763666456
 30
0.0
  0
VERTEX
  8
001
 62
               3
  5
47
 10
476.91791701655393
 20
100.32721044291472
 30
0.0
  0
VERTEX
  8
001
 62
               3
  5
48
 10
476.96720146438042
 20
100.52736443852349
 30
0.0
  0
VERTEX
  8
001
 62
               3
  5
49
 10
477.02063177700262
 20
100.70853879503638
 30
0.0
  0
VERTEX
  8
001
 62
               3
  5
4A
 10
477.08322016011203
 20
100.88689035020354
 30
0.0
  0
VERTEX
  8
001
 62
               3
  5
4B
 10
477.14697315339976
 20
101.04034070454848
 30
0.0
  0
VERTEX
  8
001
 62
               3
  5
4C
 10
477.22096590325287
 20
101.18871665411091
 30
0.0
  0
VERTEX
  8
001
 62
               3
  5
4D
 10
477.29803761337871
 20
101.31605379292031
 30
0.0
  0
VERTEX
  8
001
 62
               3
  5
4E
 10
477.38663675275359
 20
101.43684950061211
 30
0.0
  0
VERTEX
  8
001
 62
               3
  5
4F
 10
477.47229094194313
 20
101.53209560934386
 30
0.0
  0
VERTEX
  8
001
 62
               3
  5
50
 10
477.57010335483915
 20
101.61137966717999
 30
0.0
  0
VERTEX
  8
001
 62
               3
  5
51
 10
477.74369910241921
 20
101.68837350557425
 30
0.0
  0
VERTEX
  8
001
 62
               3
  5
52
 10
477.93454114397139
 20
101.73440001768472
 30
0.0
  0
SEQEND
  8
001
  5
53
  0
LINE
  8
001
 62
               3
  5
54
 10
476.75761019454694
 20
94.73440001768472
 30
0.0
 11
476.75761019454694
 21
98.73440001768472
 31
0.0
  0
POLYLINE
  8
001
 62
               3
  5
55
 66
               1
 10
0.0
 20
0.0
 30
0.0
  0
VERTEX
  8
001
 62
               3
  5
56
 10
477.93454114397173
 20
91.73440001768472
 30
0.0
  0
VERTEX
  8
001
 62
               3
  5
57
 10
477.81746217492548
 20
91.7513595923933
 30
0.0
  0
VERTEX
  8
001
 62
               3
  5
58
 10
477.70500240464338
 20
91.781664706957287
 30
0.0
  0
VERTEX
  8
001
 62
               3
  5
59
 10
477.59132617916907
 20
91.841524896397686
 30
0.0
  0
VERTEX
  8
001
 62
               3
  5
5A
 10
477.48954813164988
 20
91.922848886121983
 30
0.0
  0
VERTEX
  8
001
 62
               3
  5
5B
 10
477.38400638559278
 20
92.035358431832933
 30
0.0
  0
VERTEX
  8
001
 62
               3
  5
5C
 10
477.2933843859862
 20
92.159369654255286
 30
0.0
  0
VERTEX
  8
001
 62
               3
  5
5D
 10
477.2004575129269
 20
92.318650673457725
 30
0.0
  0
VERTEX
  8
001
 62
               3
  5
5E
 10
477.1218963766504
 20
92.485782221932809
 30
0.0
  0
VERTEX
  8
001
 62
               3
  5
5F
 10
477.04880985930993
 20
92.675782141205204
 30
0.0
  0
VERTEX
  8
001
 62
               3
  5
60
 10
476.9874011240517
 20
92.869797799294517
 30
0.0
  0
VERTEX
  8
001
 62
               3
  5
61
 10
476.92934271716842
 20
93.092099867850862
 30
0.0
  0
VERTEX
  8
001
 62
               3
  5
62
 10
476.88170574318116
 20
93.316873203551054
 30
0.0
  0
VERTEX
  8
001
 62
               3
  5
63
 10
476.84262419816747
 20
93.547337472176196
 30
0.0
  0
VERTEX
  8
001
 62
               3
  5
64
 10
476.81166249026973
 20
93.779056568606904
 30
0.0
  0
VERTEX
  8
001
 62
               3
  5
65
 10
476.78666632591768
 20
94.024680608232686
 30
0.0
  0
VERTEX
  8
001
 62
               3
  5
66
 10
476.76997851346869
 20
94.270949814601309
 30
0.0
  0
VERTEX
  8
001
 62
               3
  5
67
 10
476.76179071331973
 20
94.502591363522271
 30
0.0
  0
VERTEX
  8
001
 62
               3
  5
68
 10
476.75761019454723
 20
94.73440001768472
 30
0.0
  0
SEQEND
  8
001
  5
69
  0
POLYLINE
  8
001
 62
               3
  5
6A
 66
               1
 10
0.0
 20
0.0
 30
0.0
  0
VERTEX
  8
001
 62
               3
  5
6B
 10
546.75761019454694
 20
94.73440001768472
 30
0.0
  0
VERTEX
  8
001
 62
               3
  5
6C
 10
546.75301704581011
 20
94.493301200329313
 30
0.0
  0
VERTEX
  8
001
 62
               3
  5
6D
 10
546.74413640904254
 20
94.25238396662472
 30
0.0
  0
VERTEX
  8
001
 62
               3
  5
6E
 10
546.72801451295095
 20
94.017965864606424
 30
0.0
  0
VERTEX
  8
001
 62
               3
  5
6F
 10
546.70426707664058
 20
93.784154544005375
 30
0.0
  0
VERTEX
  8
001
 62
               3
  5
70
 10
546.67497054332011
 20
93.563344254432835
 30
0.0
  0
VERTEX
  8
001
 62
               3
  5
71
 10
546.63842409719905
 20
93.343622398704881
 30
0.0
  0
VERTEX
  8
001
 62
               3
  5
72
 10
546.59730337253984
 20
93.141589592454721
 30
0.0
  0
VERTEX
  8
001
 62
               3
  5
73
 10
546.54801892471335
 20
92.941435596845949
 30
0.0
  0
VERTEX
  8
001
 62
               3
  5
74
 10
546.49458861209132
 20
92.760261240333065
 30
0.0
  0
VERTEX
  8
001
 62
               3
  5
75
 10
546.43200022898191
 20
92.581909685165897
 30
0.0
  0
VERTEX
  8
001
 62
               3
  5
76
 10
546.36824723569418
 20
92.428459330820957
 30
0.0
  0
VERTEX
  8
001
 62
               3
  5
77
 10
546.29425448584107
 20
92.280083381258535
 30
0.0
  0
VERTEX
  8
001
 62
               3
  5
78
 10
546.21718277571529
 20
92.152746242449126
 30
0.0
  0
VERTEX
  8
001
 62
               3
  5
79
 10
546.1285836363403
 20
92.031950534757314
 30
0.0
  0
VERTEX
  8
001
 62
               3
  5
7A
 10
546.04292944715075
 20
91.936704426025585
 30
0.0
  0
VERTEX
  8
001
 62
               3
  5
7B
 10
545.94511703425474
 20
91.857420368189452
 30
0.0
  0
VERTEX
  8
001
 62
               3
  5
7C
 10
545.77152128667467
 20
91.780426529795193
 30
0.0
  0
VERTEX
  8
001
 62
               3
  5
7D
 10
545.5806792451225
 20
91.73440001768472
 30
0.0
  0
SEQEND
  8
001
  5
7E
  0
LINE
  8
001
 62
               3
  5
7F
 10
546.75761019454694
 20
98.73440001768472
 30
0.0
 11
546.75761019454694
 21
94.73440001768472
 31
0.0
  0
POLYLINE
  8
001
 62
               3
  5
80
 66
               1
 10
0.0
 20
0.0
 30
0.0
  0
VERTEX
  8
001
 62
               3
  5
81
 10
545.58067924512261
 20
101.73440001768472
 30
0.0
  0
VERTEX
  8
001
 62
               3
  5
82
 10
545.69775821416886
 20
101.71744044297614
 30
0.0
  0
VERTEX
  8
001
 62
               3
  5
83
 10
545.81021798445101
 20
101.68713532841215
 30
0.0
  0
VERTEX
  8
001
 62
               3
  5
84
 10
545.92389420992515
 20
101.62727513897175
 30
0.0
  0
VERTEX
  8
001
 62
               3
  5
85
 10
546.0256722574444
 20
101.54595114924746
 30
0.0
  0
VERTEX
  8
001
 62
               3
  5
86
 10
546.13121400350155
 20
101.43344160353651
 30
0.0
  0
VERTEX
  8
001
 62
               3
  5
87
 10
546.22183600310814
 20
101.30943038111415
 30
0.0
  0
VERTEX
  8
001
 62
               3
  5
88
 10
546.31476287616738
 20
101.15014936191172
 30
0.0
  0
VERTEX
  8
001
 62
               3
  5
89
 10
546.39332401244394
 20
100.98301781343663
 30
0.0
  0
VERTEX
  8
001
 62
               3
  5
8A
 10
546.46641052978441
 20
100.79301789416424
 30
0.0
  0
VERTEX
  8
001
 62
               3
  5
8B
 10
546.52781926504258
 20
100.59900223607492
 30
0.0
  0
VERTEX
  8
001
 62
               3
  5
8C
 10
546.58587767192591
 20
100.37670016751858
 30
0.0
  0
VERTEX
  8
001
 62
               3
  5
8D
 10
546.63351464591312
 20
100.15192683181839
 30
0.0
  0
VERTEX
  8
001
 62
               3
  5
8E
 10
546.67259619092692
 20
99.921462563193245
 30
0.0
  0
VERTEX
  8
001
 62
               3
  5
8F
 10
546.70355789882467
 20
99.689743466762536
 30
0.0
  0
VERTEX
  8
001
 62
               3
  5
90
 10
546.7285540631766
 20
99.444119427136755
 30
0.0
  0
VERTEX
  8
001
 62
               3
  5
91
 10
546.74524187562565
 20
99.197850220768132
 30
0.0
  0
VERTEX
  8
001
 62
               3
  5
92
 10
546.75342967577456
 20
98.96620867184717
 30
0.0
  0
VERTEX
  8
001
 62
               3
  5
93
 10
546.75761019454717
 20
98.73440001768472
 30
0.0
  0
SEQEND
  8
001
  5
94
  0
POLYLINE
  8
001
 62
               3
  5
95
 66
               1
 10
0.0
 20
0.0
 30
0.0
  0
VERTEX
  8
001
 62
               3
  5
96
 10
556.29972509718732
 20
101.73440001768472
 30
0.0
  0
VERTEX
  8
001
 62
               3
  5
97
 10
556.38781416648305
 20
101.71730332371553
 30
0.0
  0
VERTEX
  8
001
 62
               3
  5
98
 10
556.47082612855809
 20
101.68901933852179
 30
0.0
  0
VERTEX
  8
001
 62
               3
  5
99
 10
556.55734270353616
 20
101.63091625537713
 30
0.0
  0
VERTEX
  8
001
 62
               3
  5
9A
 10
556.63150971686355
 20
101.55428627253984
 30
0.0
  0
VERTEX
  8
001
 62
               3
  5
9B
 10
556.71117213760124
 20
101.44598756821379
 30
0.0
  0
VERTEX
  8
001
 62
               3
  5
9C
 10
556.77781705923337
 20
101.33052125635461
 30
0.0
  0
VERTEX
  8
001
 62
               3
  5
9D
 10
556.84769735392877
 20
101.1797924826206
 30
0.0
  0
VERTEX
  8
001
 62
               3
  5
9E
 10
556.90626707105253
 20
101.02385935770609
 30
0.0
  0
VERTEX
  8
001
 62
               3
  5
9F
 10
556.96299271947009
 20
100.84047131613092
 30
0.0
  0
VERTEX
  8
001
 62
               3
  5
A0
 10
557.01048503554898
 20
100.65461902343182
 30
0.0
  0
VERTEX
  8
001
 62
               3
  5
A1
 10
557.05588970287261
 20
100.44056536655211
 30
0.0
  0
VERTEX
  8
001
 62
               3
  5
A2
 10
557.09332635275825
 20
100.22494007377885
 30
0.0
  0
VERTEX
  8
001
 62
               3
  5
A3
 10
557.12537527830909
 20
99.996449939694116
 30
0.0
  0
VERTEX
  8
001
 62
               3
  5
A4
 10
557.15097979676739
 20
99.767140522725157
 30
0.0
  0
VERTEX
  8
001
 62
               3
  5
A5
 10
557.17210504216303
 20
99.522977117512895
 30
0.0
  0
VERTEX
  8
001
 62
               3
  5
A6
 10
557.1867198227302
 20
99.278374492335814
 30
0.0
  0
VERTEX
  8
001
 62
               3
  5
A7
 10
557.19548321157936
 20
99.006469930278811
 30
0.0
  0
VERTEX
  8
001
 62
               3
  5
A8
 10
557.19988126455428
 20
98.73440001768472
 30
0.0
  0
SEQEND
  8
001
  5
A9
  0
POLYLINE
  8
001
 62
               3
  5
AA
 66
               1
 10
0.0
 20
0.0
 30
0.0
  0
VERTEX
  8
001
 62
               3
  5
AB
 10
557.19988126455428
 20
94.73440001768472
 30
0.0
  0
VERTEX
  8
001
 62
               3
  5
AC
 10
557.19622460260973
 20
94.489175696243308
 30
0.0
  0
VERTEX
  8
001
 62
               3
  5
AD
 10
557.18914337946148
 20
94.244063680146297
 30
0.0
  0
VERTEX
  8
001
 62
               3
  5
AE
 10
557.17628890031347
 20
94.005672730915094
 30
0.0
  0
VERTEX
  8
001
 62
               3
  5
AF
 10
557.15732012303295
 20
93.767667140251476
 30
0.0
  0
VERTEX
  8
001
 62
               3
  5
B0
 10
557.13391794832398
 20
93.543106366430024
 30
0.0
  0
VERTEX
  8
001
 62
               3
  5
B1
 10
557.10462985807044
 20
93.319228563311569
 30
0.0
  0
VERTEX
  8
001
 62
               3
  5
B2
 10
557.0717345578588
 20
93.114039027473936
 30
0.0
  0
VERTEX
  8
001
 62
               3
  5
B3
 10
557.03206009892835
 20
92.910115770266614
 30
0.0
  0
VERTEX
  8
001
 62
               3
  5
B4
 10
556.98951001702142
 20
92.727990072192597
 30
0.0
  0
VERTEX
  8
001
 62
               3
  5
B5
 10
556.93929063979454
 20
92.547634001849502
 30
0.0
  0
VERTEX
  8
001
 62
               3
  5
B6
 10
556.8886526854219
 20
92.394309255717772
 30
0.0
  0
VERTEX
  8
001
 62
               3
  5
B7
 10
556.82886233369322
 20
92.244878317018873
 30
0.0
  0
VERTEX
  8
001
 62
               3
  5
B8
 10
556.76870161600402
 20
92.121952015588278
 30
0.0
  0
VERTEX
  8
001
 62
               3
  5
B9
 10
556.69829712713397
 20
92.003038559379547
 30
0.0
  0
VERTEX
  8
001
 62
               3
  5
BA
 10
556.63249553327103
 20
91.912338628921759
 30
0.0
  0
VERTEX
  8
001
 62
               3
  5
BB
 10
556.5536703473839
 20
91.836586531168024
 30
0.0
  0
VERTEX
  8
001
 62
               3
  5
BC
 10
556.43376199338161
 20
91.774839834760712
 30
0.0
  0
VERTEX
  8
001
 62
               3
  5
BD
 10
556.29972509718755
 20
91.73440001768472
 30
0.0
  0
SEQEND
  8
001
  5
BE
  0
POLYLINE
  8
001
 62
               3
  5
BF
 66
               1
 10
0.0
 20
0.0
 30
0.0
  0
VERTEX
  8
001
 62
               3
  5
C0
 10
466.31533912454006
 20
98.73440001768472
 30
0.0
  0
VERTEX
  8
001
 62
               3
  5
C1
 10
466.31899578648461
 20
98.979624339126133
 30
0.0
  0
VERTEX
  8
001
 62
               3
  5
C2
 10
466.32607700963285
 20
99.224736355223143
 30
0.0
  0
VERTEX
  8
001
 62
               3
  5
C3
 10
466.33893148878087
 20
99.463127304454346
 30
0.0
  0
VERTEX
  8
001
 62
               3
  5
C4
 10
466.35790026606134
 20
99.701132895117965
 30
0.0
  0
VERTEX
  8
001
 62
               3
  5
C5
 10
466.38130244077041
 20
99.925693668939417
 30
0.0
  0
VERTEX
  8
001
 62
               3
  5
C6
 10
466.41059053102396
 20
100.14957147205789
 30
0.0
  0
VERTEX
  8
001
 62
               3
  5
C7
 10
466.44348583123565
 20
100.3547610078955
 30
0.0
  0
VERTEX
  8
001
 62
               3
  5
C8
 10
466.48316029016598
 20
100.55868426510281
 30
0.0
  0
VERTEX
  8
001
 62
               3
  5
C9
 10
466.52571037207287
 20
100.74080996317684
 30
0.0
  0
VERTEX
  8
001
 62
               3
  5
CA
 10
466.57592974929975
 20
100.92116603351994
 30
0.0
  0
VERTEX
  8
001
 62
               3
  5
CB
 10
466.62656770367244
 20
101.07449077965167
 30
0.0
  0
VERTEX
  8
001
 62
               3
  5
CC
 10
466.68635805540106
 20
101.22392171835057
 30
0.0
  0
VERTEX
  8
001
 62
               3
  5
CD
 10
466.74651877309026
 20
101.34684801978116
 30
0.0
  0
VERTEX
  8
001
 62
               3
  5
CE
 10
466.81692326196026
 20
101.46576147598989
 30
0.0
  0
VERTEX
  8
001
 62
               3
  5
CF
 10
466.88272485582337
 20
101.55646140644768
 30
0.0
  0
VERTEX
  8
001
 62
               3
  5
D0
 10
466.96155004171038
 20
101.63221350420142
 30
0.0
  0
VERTEX
  8
001
 62
               3
  5
D1
 10
467.08145839571284
 20
101.69396020060874
 30
0.0
  0
VERTEX
  8
001
 62
               3
  5
D2
 10
467.21549529190696
 20
101.73440001768472
 30
0.0
  0
SEQEND
  8
001
  5
D3
  0
POLYLINE
  8
001
 62
               3
  5
D4
 66
               1
 10
0.0
 20
0.0
 30
0.0
  0
VERTEX
  8
001
 62
               3
  5
D5
 10
467.21549529190679
 20
91.73440001768472
 30
0.0
  0
VERTEX
  8
001
 62
               3
  5
D6
 10
467.12740622261106
 20
91.751496711653914
 30
0.0
  0
VERTEX
  8
001
 62
               3
  5
D7
 10
467.04439426053591
 20
91.779780696847652
 30
0.0
  0
VERTEX
  8
001
 62
               3
  5
D8
 10
466.95787768555795
 20
91.83788377999231
 30
0.0
  0
VERTEX
  8
001
 62
               3
  5
D9
 10
466.88371067223051
 20
91.9145137628296
 30
0.0
  0
VERTEX
  8
001
 62
               3
  5
DA
 10
466.80404825149287
 20
92.022812467155646
 30
0.0
  0
VERTEX
  8
001
 62
               3
  5
DB
 10
466.73740332986068
 20
92.138278779014826
 30
0.0
  0
VERTEX
  8
001
 62
               3
  5
DC
 10
466.66752303516529
 20
92.289007552748842
 30
0.0
  0
VERTEX
  8
001
 62
               3
  5
DD
 10
466.60895331804147
 20
92.44494067766334
 30
0.0
  0
VERTEX
  8
001
 62
               3
  5
DE
 10
466.5522276696239
 20
92.628328719238525
 30
0.0
  0
VERTEX
  8
001
 62
               3
  5
DF
 10
466.50473535354502
 20
92.81418101193762
 30
0.0
  0
VERTEX
  8
001
 62
               3
  5
E0
 10
466.45933068622134
 20
93.028234668817333
 30
0.0
  0
VERTEX
  8
001
 62
               3
  5
E1
 10
466.42189403633569
 20
93.243859961590587
 30
0.0
  0
VERTEX
  8
001
 62
               3
  5
E2
 10
466.38984511078496
 20
93.472350095675324
 30
0.0
  0
VERTEX
  8
001
 62
               3
  5
E3
 10
466.36424059232661
 20
93.701659512644284
 30
0.0
  0
VERTEX
  8
001
 62
               3
  5
E4
 10
466.34311534693103
 20
93.94582291785656
 30
0.0
  0
VERTEX
  8
001
 62
               3
  5
E5
 10
466.3285005663638
 20
94.190425543033641
 30
0.0
  0
VERTEX
  8
001
 62
               3
  5
E6
 10
466.3197371775147
 20
94.462330105090629
 30
0.0
  0
VERTEX
  8
001
 62
               3
  5
E7
 10
466.31533912453989
 20
94.73440001768472
 30
0.0
  0
SEQEND
  8
001
  5
E8
  0
POLYLINE
  8
001
 62
               3
  5
E9
 66
               1
 10
0.0
 20
0.0
 30
0.0
  0
VERTEX
  8
001
 62
               3
  5
EA
 10
531.75761019454694
 20
133.62533062402792
 30
0.0
  0
VERTEX
  8
001
 62
               3
  5
EB
 10
533.00761019454694
 20
133.2204548324944
 30
0.0
  0
VERTEX
  8
001
 62
               3
  5
EC
 10
534.25761019454694
 20
132.81557904096084
 30
0.0
  0
VERTEX
  8
001
 62
               3
  5
ED
 10
534.73752135894802
 20
132.6578623063389
 30
0.0
  0
VERTEX
  8
001
 62
               3
  5
EE
 10
535.21295670885229
 20
132.48795606338783
 30
0.0
  0
VERTEX
  8
001
 62
               3
  5
EF
 10
535.67787537043966
 20
132.29687386345958
 30
0.0
  0
VERTEX
  8
001
 62
               3
  5
F0
 10
536.13301071518219
 20
132.08294845259232
 30
0.0
  0
VERTEX
  8
001
 62
               3
  5
F1
 10
536.65050972971903
 20
131.80502416907714
 30
0.0
  0
VERTEX
  8
001
 62
               3
  5
F2
 10
537.14902782120794
 20
131.49448065321505
 30
0.0
  0
VERTEX
  8
001
 62
               3
  5
F3
 10
537.62774384665795
 20
131.14552111557015
 30
0.0
  0
VERTEX
  8
001
 62
               3
  5
F4
 10
538.0769037055552
 20
130.75942456385442
 30
0.0
  0
VERTEX
  8
001
 62
               3
  5
F5
 10
538.41290502607796
 20
130.4214899694949
 30
0.0
  0
VERTEX
  8
001
 62
               3
  5
F6
 10
538.72299355873497
 20
130.05961020626702
 30
0.0
  0
VERTEX
  8
001
 62
               3
  5
F7
 10
539.01035955995224
 20
129.66502934387606
 30
0.0
  0
VERTEX
  8
001
 62
               3
  5
F8
 10
539.26331818498033
 20
129.24772330791151
 30
0.0
  0
VERTEX
  8
001
 62
               3
  5
F9
 10
539.43253427738557
 20
128.9116024138375
 30
0.0
  0
VERTEX
  8
001
 62
               3
  5
FA
 10
539.57811634975303
 20
128.56457709043096
 30
0.0
  0
VERTEX
  8
001
 62
               3
  5
FB
 10
539.70140455027195
 20
128.20075396924483
 30
0.0
  0
VERTEX
  8
001
 62
               3
  5
FC
 10
539.79756928417396
 20
127.82889600298714
 30
0.0
  0
VERTEX
  8
001
 62
               3
  5
FD
 10
539.86646579753199
 20
127.44201540164873
 30
0.0
  0
VERTEX
  8
001
 62
               3
  5
FE
 10
539.9056122210086
 20
127.05090553580854
 30
0.0
  0
VERTEX
  8
001
 62
               3
  5
FF
 10
539.91306205810417
 20
126.89272509829347
 30
0.0
  0
VERTEX
  8
001
 62
               3
  5
100
 10
539.915699007331
 20
126.73440001768476
 30
0.0
  0
SEQEND
  8
001
  5
101
  0
POLYLINE
  8
001
 62
               3
  5
102
 66
               1
 10
0.0
 20
0.0
 30
0.0
  0
VERTEX
  8
001
 62
               3
  5
103
 10
531.75761019454694
 20
119.84346941134152
 30
0.0
  0
VERTEX
  8
001
 62
               3
  5
104
 10
533.00761019454694
 20
120.24834520287506
 30
0.0
  0
VERTEX
  8
001
 62
               3
  5
105
 10
534.25761019454694
 20
120.6532209944086
 30
0.0
  0
VERTEX
  8
001
 62
               3
  5
106
 10
534.73752135894802
 20
120.81093772903056
 30
0.0
  0
VERTEX
  8
001
 62
               3
  5
107
 10
535.21295670885229
 20
120.98084397198161
 30
0.0
  0
VERTEX
  8
001
 62
               3
  5
108
 10
535.67787537043966
 20
121.17192617190985
 30
0.0
  0
VERTEX
  8
001
 62
               3
  5
109
 10
536.13301071518219
 20
121.38585158277712
 30
0.0
  0
VERTEX
  8
001
 62
               3
  5
10A
 10
536.65050972971903
 20
121.6637758662923
 30
0.0
  0
VERTEX
  8
001
 62
               3
  5
10B
 10
537.14902782120794
 20
121.97431938215439
 30
0.0
  0
VERTEX
  8
001
 62
               3
  5
10C
 10
537.62774384665795
 20
122.32327891979931
 30
0.0
  0
VERTEX
  8
001
 62
               3
  5
10D
 10
538.0769037055552
 20
122.70937547151502
 30
0.0
  0
VERTEX
  8
001
 62
               3
  5
10E
 10
538.41290502607796
 20
123.04731006587454
 30
0.0
  0
VERTEX
  8
001
 62
               3
  5
10F
 10
538.72299355873497
 20
123.40918982910242
 30
0.0
  0
VERTEX
  8
001
 62
               3
  5
110
 10
539.01035955995224
 20
123.8037706914934
 30
0.0
  0
VERTEX
  8
001
 62
               3
  5
111
 10
539.26331818498033
 20
124.22107672745793
 30
0.0
  0
VERTEX
  8
001
 62
               3
  5
112
 10
539.43253427738557
 20
124.55719762153193
 30
0.0
  0
VERTEX
  8
001
 62
               3
  5
113
 10
539.57811634975303
 20
124.90422294493848
 30
0.0
  0
VERTEX
  8
001
 62
               3
  5
114
 10
539.70140455027195
 20
125.26804606612461
 30
0.0
  0
VERTEX
  8
001
 62
               3
  5
115
 10
539.79756928417396
 20
125.6399040323823
 30
0.0
  0
VERTEX
  8
001
 62
               3
  5
116
 10
539.86646579753199
 20
126.02678463372071
 30
0.0
  0
VERTEX
  8
001
 62
               3
  5
117
 10
539.9056122210086
 20
126.4178944995609
 30
0.0
  0
VERTEX
  8
001
 62
               3
  5
118
 10
539.91306205810417
 20
126.57607493707597
 30
0.0
  0
VERTEX
  8
001
 62
               3
  5
119
 10
539.915699007331
 20
126.73440001768468
 30
0.0
  0
SEQEND
  8
001
  5
11A
  0
LINE
  8
001
 62
               3
  5
11B
 10
486.75761019454694
 20
106.73440001768506
 30
0.0
 11
486.75761019454694
 21
134.73440001768495
 31
0.0
  0
ARC
  8
001
 62
               3
  5
11C
 10
528.75761019454694
 20
134.73440001768495
 30
0.0
 40
2.9999999999999964
 50
0.0000000000000127
 51
90.000000000000014
  0
ARC
  8
001
 62
               3
  5
11D
 10
489.75761019454694
 20
134.73440001768495
 30
0.0
 40
2.9999999999999964
 50
90.0
 51
180.0
  0
LINE
  8
001
 62
               3
  5
11E
 10
531.75761019454694
 20
134.73440001768495
 30
0.0
 11
531.75761019454694
 21
106.73440001768506
 31
0.0
  0
ARC
  8
001
 62
               3
  5
11F
 10
528.75761019454694
 20
106.73440001768506
 30
0.0
 40
3.0
 50
270.0
 51
0.0
  0
ARC
  8
001
 62
               3
  5
120
 10
489.75761019454694
 20
106.73440001768506
 30
0.0
 40
3.0
 50
180.0
 51
270.0
  0
LINE
  8
001
  6
CENTER
  5
121
 10
346.50173949106807
 20
303.27178102125765
 30
0.0
 11
346.50173949106807
 21
199.27178102125754
 31
0.0
  0
LINE
  8
001
  6
CENTER
  5
122
 10
146.50173949106826
 20
303.27178102125788
 30
0.0
 11
146.50173949106815
 21
199.27178102125777
 31
0.0
  0
LINE
  8
001
 62
               3
  5
123
 10
356.50173949106807
 20
94.734400017684777
 30
0.0
 11
356.50173949106807
 21
98.734400017684777
 31
0.0
  0
ARC
  8
001
 62
               3
  5
124
 10
359.50173949106807
 20
98.734400017684777
 30
0.0
 40
3.0
 50
90.0
 51
180.0
  0
ARC
  8
001
 62
               3
  5
125
 10
359.50173949106807
 20
94.734400017684777
 30
0.0
 40
3.0
 50
180.0
 51
270.0
  0
LINE
  8
001
 62
               3
  5
126
 10
359.50173949106807
 20
91.734400017684777
 30
0.0
 11
393.50173949106807
 21
91.734400017684777
 31
0.0
  0
LINE
  8
001
 62
               3
  5
127
 10
393.50173949106807
 20
101.73440001768478
 30
0.0
 11
359.50173949106807
 21
101.73440001768478
 31
0.0
  0
LINE
  8
001
 62
               3
  5
128
 10
136.50173949106826
 20
94.734400017684891
 30
0.0
 11
136.50173949106826
 21
98.734400017684891
 31
0.0
  0
ARC
  8
001
 62
               3
  5
129
 10
133.50173949106826
 20
98.734400017684891
 30
0.0
 40
3.0
 50
359.99999999999994
 51
89.999999999999929
  0
ARC
  8
001
 62
               3
  5
12A
 10
133.50173949106826
 20
94.734400017684891
 30
0.0
 40
3.0
 50
270.0
 51
0.0
  0
LINE
  8
001
 62
               3
  5
12B
 10
133.50173949106826
 20
91.734400017684891
 30
0.0
 11
99.501739491068264
 21
91.734400017684948
 31
0.0
  0
LINE
  8
001
 62
               3
  5
12C
 10
99.501739491068037
 20
101.73440001768495
 30
0.0
 11
133.50173949106815
 21
101.73440001768489
 31
0.0
  0
LINE
  8
001
 62
               3
  5
12D
 10
402.50173949106807
 20
253.27178102125765
 30
0.0
 11
402.50173949106807
 21
268.27178102125771
 31
0.0
  0
ARC
  8
001
 62
               3
  5
12E
 10
392.09779195177998
 20
276.27178102125765
 30
0.0
 40
5.0
 50
208.73565374490539
 51
270.0
  0
LINE
  8
001
 62
               3
  5
12F
 10
402.50173949106807
 20
249.27178102125765
 30
0.0
 11
383.91022353352787
 21
249.27178102125765
 31
0.0
  0
LINE
  8
001
 62
               3
  5
130
 10
402.50173949106807
 20
253.27178102125765
 30
0.0
 11
383.91022353352747
 21
253.27178102125765
 31
0.0
  0
LINE
  8
001
 62
               3
  5
131
 10
383.91022353352741
 20
253.27178102125765
 30
0.0
 11
383.41768817865727
 21
253.76431637612779
 31
0.0
  0
LINE
  8
001
 62
               3
  5
132
 10
383.91022353352787
 20
249.27178102125765
 30
0.0
 11
383.41768817865727
 21
248.77924566638706
 31
0.0
  0
LINE
  8
001
 62
               3
  5
133
 10
104.02821832787751
 20
226.27178102125765
 30
0.0
 11
93.501739491068122
 21
226.27178102125765
 31
0.0
  0
LINE
  8
001
 62
               3
  5
134
 10
100.90568703035601
 20
271.27178102125765
 30
0.0
 11
93.501739491068122
 21
271.27178102125765
 31
0.0
  0
ARC
  8
001
 62
               3
  5
135
 10
93.501739491068037
 20
229.27178102125765
 30
0.0
 40
3.0
 50
180.0
 51
270.0
  0
ARC
  8
001
 62
               3
  5
136
 10
93.501739491068037
 20
268.27178102125765
 30
0.0
 40
3.0
 50
90.000000000000014
 51
180.0
  0
ARC
  8
001
 62
               3
  5
137
 10
104.02821832787751
 20
221.27178102125765
 30
0.0
 40
5.0
 50
35.23441798458115
 51
89.999999999999986
  0
LINE
  8
001
 62
               3
  5
138
 10
90.501739491068037
 20
249.27178102125765
 30
0.0
 11
90.501739491068037
 21
229.27178102125771
 31
0.0
  0
LINE
  8
001
 62
               3
  5
139
 10
90.501739491068037
 20
253.27178102125765
 30
0.0
 11
90.501739491068037
 21
268.27178102125771
 31
0.0
  0
ARC
  8
001
 62
               3
  5
13A
 10
100.90568703035601
 20
276.27178102125765
 30
0.0
 40
5.0
 50
270.0
 51
331.26434625509461
  0
LINE
  8
001
 62
               3
  5
13B
 10
90.501739491068037
 20
249.27178102125765
 30
0.0
 11
109.09325544860823
 21
249.27178102125765
 31
0.0
  0
LINE
  8
001
 62
               3
  5
13C
 10
90.501739491068037
 20
253.27178102125765
 30
0.0
 11
109.09325544860863
 21
253.27178102125765
 31
0.0
  0
LINE
  8
001
 62
               3
  5
13D
 10
109.09325544860869
 20
253.27178102125765
 30
0.0
 11
109.58579080347883
 21
253.76431637612779
 31
0.0
  0
CIRCLE
  8
001
 62
               3
  5
13E
 10
391.50173949106807
 20
126.73440001768472
 30
0.0
 40
6.9999999999999929
  0
LINE
  8
001
 62
               3
  5
13F
 10
393.50173949106807
 20
43.73440001768472
 30
0.0
 11
393.50173949106807
 21
91.73440001768472
 31
0.0
  0
LINE
  8
001
 62
               3
  5
140
 10
109.09325544860823
 20
249.27178102125765
 30
0.0
 11
109.58579080347883
 21
248.77924566638706
 31
0.0
  0
LINE
  8
001
 62
               3
  5
141
 10
301.50173949106807
 20
41.73440001768472
 30
0.0
 11
299.50173949106807
 21
43.73440001768472
 31
0.0
  0
LINE
  8
001
 62
               3
  5
142
 10
301.50173949106807
 20
41.73440001768472
 30
0.0
 11
391.50173949106807
 21
41.73440001768472
 31
0.0
  0
ARC
  8
001
 62
               3
  5
143
 10
284.50173949106807
 20
47.73440001768472
 30
0.0
 40
3.0
 50
194.47751218592944
 51
270.0
  0
CIRCLE
  8
001
 62
               3
  5
144
 10
146.50173949106804
 20
251.27178102125765
 30
0.0
 40
37.0
  0
LINE
  8
001
 62
               3
  5
145
 10
303.51612181400037
 20
151.73440001768472
 30
0.0
 11
301.63527094271899
 21
149.73440001768472
 31
0.0
  0
LINE
  8
001
 62
               3
  5
146
 10
292.50173949106807
 20
151.73440001768472
 30
0.0
 11
391.50173949106807
 21
151.73440001768472
 31
0.0
  0
LINE
  8
001
 62
               3
  5
147
 10
391.50173949106807
 20
151.73440001768472
 30
0.0
 11
393.50173949106807
 21
149.73440001768472
 31
0.0
  0
LINE
  8
001
 62
               3
  5
148
 10
391.50173949106807
 20
41.73440001768472
 30
0.0
 11
393.50173949106807
 21
43.73440001768472
 31
0.0
  0
LINE
  8
001
 62
               3
  5
149
 10
292.50173949106807
 20
151.73440001768472
 30
0.0
 11
290.50173949106807
 21
149.73440001768472
 31
0.0
  0
LINE
  8
001
  6
CENTER
  5
14A
 10
346.50173949106807
 20
156.73440001768472
 30
0.0
 11
346.50173949106807
 21
36.734400017684663
 31
0.0
  0
CIRCLE
  8
001
 62
               3
  5
14B
 10
101.50173949106815
 20
126.73440001768495
 30
0.0
 40
6.9999999999999929
  0
LINE
  8
001
 62
               3
  5
14C
 10
99.50173949106815
 20
43.734400017684834
 30
0.0
 11
99.501739491068207
 21
91.734400017684834
 31
0.0
  0
LINE
  8
001
 62
               3
  5
14D
 10
386.30123697533281
 20
137.73440001768472
 30
0.0
 11
386.30123697533281
 21
131.41999214502906
 31
0.0
  0
LINE
  8
001
 62
               3
  5
14E
 10
191.50173949106826
 20
41.734400017684834
 30
0.0
 11
193.50173949106826
 21
43.734400017684834
 31
0.0
  0
LINE
  8
001
 62
               3
  5
14F
 10
191.50173949106826
 20
41.734400017684834
 30
0.0
 11
101.50173949106829
 21
41.734400017684933
 31
0.0
  0
ARC
  8
001
 62
               3
  5
150
 10
391.50173949106807
 20
126.73440001768472
 30
0.0
 40
10.999999999999886
 50
316.65824177277733
 51
90.000000000000014
  0
ARC
  8
001
 62
               3
  5
151
 10
391.50173949106807
 20
111.73440001768478
 30
0.0
 40
7.9999999999998863
 50
270.0
 51
0.0
  0
LINE
  8
001
 62
               3
  5
152
 10
399.50173949106807
 20
111.73440001768478
 30
0.0
 11
399.50173949106807
 21
119.18456558241405
 31
0.0
  0
LINE
  8
001
 62
               3
  5
153
 10
386.30123697533281
 20
103.73440001768478
 30
0.0
 11
391.50173949106807
 21
103.73440001768478
 31
0.0
  0
LINE
  8
001
 62
               3
  5
154
 10
386.30123697533281
 20
137.73440001768472
 30
0.0
 11
391.50173949106807
 21
137.73440001768472
 31
0.0
  0
ARC
  8
001
 62
               3
  5
155
 10
396.50173949106807
 20
139.81109684830653
 30
0.0
 40
3.0
 50
180.0
 51
249.07516757236195
  0
ARC
  8
001
 62
               3
  5
156
 10
396.50173949106807
 20
101.93644104655215
 30
0.0
 40
3.0
 50
117.03569178941194
 51
180.0
  0
LINE
  8
001
 62
               3
  5
157
 10
393.50173949106807
 20
149.73440001768472
 30
0.0
 11
393.50173949106807
 21
139.81109684830653
 31
0.0
  0
LINE
  8
001
 62
               3
  5
158
 10
393.50173949106807
 20
101.73440001768478
 30
0.0
 11
393.50173949106807
 21
101.93644104655215
 31
0.0
  0
LINE
  8
001
 62
               3
  5
159
 10
191.50173949106826
 20
151.73440001768472
 30
0.0
 11
101.50173949106828
 21
151.73440001768483
 31
0.0
  0
LINE
  8
001
 62
               3
  5
15A
 10
101.50173949106826
 20
151.73440001768495
 30
0.0
 11
99.501739491068264
 21
149.73440001768495
 31
0.0
  0
LINE
  8
001
 62
               3
  5
15B
 10
101.50173949106815
 20
41.734400017684834
 30
0.0
 11
99.50173949106815
 21
43.734400017684834
 31
0.0
  0
LINE
  8
001
 62
               3
  5
15C
 10
106.70224200680329
 20
137.73440001768472
 30
0.0
 11
106.70224200680329
 21
131.41999214502906
 31
0.0
  0
ARC
  8
001
 62
               3
  5
15D
 10
101.50173949106804
 20
126.73440001768472
 30
0.0
 40
10.999999999999886
 50
90.0
 51
223.3417582272227
  0
LINE
  8
001
  6
CENTER
  5
15E
 10
146.50173949106826
 20
156.73440001768483
 30
0.0
 11
146.50173949106812
 21
36.734400017684777
 31
0.0
  0
ARC
  8
001
 62
               3
  5
15F
 10
101.50173949106804
 20
111.73440001768478
 30
0.0
 40
7.9999999999998863
 50
180.0
 51
270.0
  0
LINE
  8
001
 62
               3
  5
160
 10
93.501739491068037
 20
111.73440001768478
 30
0.0
 11
93.501739491068037
 21
119.18456558241405
 31
0.0
  0
LINE
  8
001
 62
               3
  5
161
 10
106.70224200680329
 20
103.73440001768478
 30
0.0
 11
101.50173949106804
 21
103.73440001768478
 31
0.0
  0
LINE
  8
001
 62
               3
  5
162
 10
106.70224200680329
 20
137.73440001768472
 30
0.0
 11
101.50173949106804
 21
137.73440001768472
 31
0.0
  0
LINE
  8
001
 62
               3
  5
163
 10
191.50173949106826
 20
151.73440001768472
 30
0.0
 11
193.50173949106826
 21
149.73440001768472
 31
0.0
  0
LINE
  8
001
 62
               3
  5
164
 10
306.70224200680309
 20
50.734400017684777
 30
0.0
 11
186.30123697533281
 21
50.734400017684777
 31
0.0
  0
LINE
  8
001
 62
               3
  5
165
 10
186.30123697533278
 20
142.73440001768472
 30
0.0
 11
306.70224200680309
 21
142.73440001768472
 31
0.0
  0
LINE
  8
001
 62
               3
  5
166
 10
306.70224200680309
 20
132.73440001768472
 30
0.0
 11
186.30123697533281
 21
132.73440001768472
 31
0.0
  0
LINE
  8
001
 62
               3
  5
167
 10
306.70224200680309
 20
60.734400017684777
 30
0.0
 11
186.30123697533281
 21
60.734400017684777
 31
0.0
  0
LINE
  8
001
 62
               3
  5
168
 10
193.50173949106804
 20
65.734400017684777
 30
0.0
 11
193.50173949106804
 21
127.73440001768478
 31
0.0
  0
LINE
  8
001
 62
               3
  5
169
 10
290.00173949106807
 20
65.734400017684777
 30
0.0
 11
290.00173949106807
 21
127.73440001768478
 31
0.0
  0
ARC
  8
001
 62
               3
  5
16A
 10
285.00173949106807
 20
127.73440001768472
 30
0.0
 40
5.0
 50
0.0
 51
90.0
  0
ARC
  8
001
 62
               3
  5
16B
 10
285.00173949106807
 20
65.734400017684777
 30
0.0
 40
5.0
 50
270.0
 51
0.0
  0
ARC
  8
001
 62
               3
  5
16C
 10
198.50173949106804
 20
127.73440001768472
 30
0.0
 40
5.0
 50
90.0
 51
180.0
  0
ARC
  8
001
 62
               3
  5
16D
 10
198.50173949106804
 20
65.734400017684777
 30
0.0
 40
5.0
 50
180.0
 51
270.0
  0
LINE
  8
001
 62
               3
  5
16E
 10
301.95962458842791
 20
65.734400017684777
 30
0.0
 11
301.95962458842791
 21
127.73440001768478
 31
0.0
  0
ARC
  8
001
 62
               3
  5
16F
 10
296.95962458842791
 20
127.73440001768472
 30
0.0
 40
5.0
 50
0.0
 51
90.0
  0
ARC
  8
001
 62
               3
  5
170
 10
296.95962458842791
 20
65.734400017684777
 30
0.0
 40
5.0
 50
270.0
 51
0.0
  0
ARC
  8
001
 62
               3
  5
171
 10
96.501739491068037
 20
139.81109684830653
 30
0.0
 40
3.0
 50
290.92483242763802
 51
0.0
  0
LINE
  8
001
 62
               3
  5
172
 10
99.501739491068037
 20
149.73440001768472
 30
0.0
 11
99.501739491068037
 21
139.81109684830653
 31
0.0
  0
ARC
  8
001
 62
               3
  5
173
 10
96.501739491068037
 20
101.93644104655215
 30
0.0
 40
3.0
 50
0.0
 51
62.964308210588051
  0
LINE
  8
001
 62
               3
  5
174
 10
99.501739491068037
 20
101.73440001768495
 30
0.0
 11
99.501739491068037
 21
101.93644104655215
 31
0.0
  0
LINE
  8
001
 62
               3
  5
175
 10
301.63527094271899
 20
147.73440001768472
 30
0.0
 11
301.63527094271899
 21
149.73440001768472
 31
0.0
  0
LINE
  8
001
 62
               3
  5
176
 10
290.50173949106807
 20
147.73440001768472
 30
0.0
 11
290.50173949106807
 21
149.73440001768472
 31
0.0
  0
ARC
  8
001
 62
               3
  5
177
 10
296.63527094271899
 20
147.73440001768472
 30
0.0
 40
5.0
 50
270.0
 51
0.0
  0
ARC
  8
001
 62
               3
  5
178
 10
285.50173949106807
 20
147.73440001768472
 30
0.0
 40
5.0
 50
270.0
 51
0.0
  0
ARC
  8
001
 62
               3
  5
179
 10
299.96862017647777
 20
45.734400017684777
 30
0.0
 40
5.0
 50
0.0
 51
90.0
  0
LINE
  8
001
 62
               3
  5
17A
 10
193.50173949106826
 20
147.73440001768472
 30
0.0
 11
193.50173949106826
 21
149.73440001768472
 31
0.0
  0
LINE
  8
001
 62
               3
  5
17B
 10
193.50173949106826
 20
45.734400017684777
 30
0.0
 11
193.50173949106826
 21
43.734400017684699
 31
0.0
  0
ARC
  8
001
 62
               3
  5
17C
 10
198.50173949106826
 20
147.73440001768472
 30
0.0
 40
5.0
 50
179.99999999999994
 51
270.0
  0
ARC
  8
001
 62
               3
  5
17D
 10
198.50173949106826
 20
45.734400017684777
 30
0.0
 40
5.0
 50
90.0
 51
179.99999999999994
  0
LINE
  8
001
 62
               3
  5
17E
 10
188.97526065425856
 20
276.27178102125765
 30
0.0
 11
304.02821832787754
 21
276.27178102125765
 31
0.0
  0
ARC
  8
001
 62
               3
  5
17F
 10
304.02821832787754
 20
281.27178102125765
 30
0.0
 40
5.0
 50
270.0
 51
324.76558201541877
  0
ARC
  8
001
 62
               3
  5
180
 10
188.97526065425856
 20
281.27178102125765
 30
0.0
 40
5.0
 50
215.23441798458123
 51
270.0
  0
LINE
  8
001
 62
               3
  5
181
 10
188.97526065425856
 20
226.27178102125765
 30
0.0
 11
304.02821832787754
 21
226.27178102125765
 31
0.0
  0
ARC
  8
001
 62
               3
  5
182
 10
304.02821832787754
 20
221.27178102125765
 30
0.0
 40
5.0
 50
35.234417984581256
 51
90.000000000000014
  0
ARC
  8
001
 62
               3
  5
183
 10
188.97526065425856
 20
221.27178102125765
 30
0.0
 40
5.0
 50
90.000000000000028
 51
144.7655820154188
  0
LINE
  8
001
  6
CENTER
  5
184
 10
511.75761019454694
 20
36.73440001768472
 30
0.0
 11
511.75761019454694
 21
156.73440001768472
 31
0.0
  0
LINE
  8
001
 62
               3
  5
185
 10
556.75761019454694
 20
151.73440001768472
 30
0.0
 11
466.7576101945466
 21
151.73440001768472
 31
0.0
  0
LINE
  8
001
 62
               3
  5
186
 10
558.75761019454694
 20
43.73440001768472
 30
0.0
 11
558.75761019454694
 21
149.73440001768472
 31
0.0
  0
LINE
  8
001
 62
               3
  5
187
 10
556.75761019454694
 20
151.73440001768472
 30
0.0
 11
558.75761019454694
 21
149.73440001768472
 31
0.0
  0
LINE
  8
001
 62
               3
  5
188
 10
464.75761019454694
 20
149.73440001768472
 30
0.0
 11
464.75761019454694
 21
43.73440001768472
 31
0.0
  0
LINE
  8
001
 62
               3
  5
189
 10
466.75761019454694
 20
151.73440001768472
 30
0.0
 11
464.75761019454694
 21
149.73440001768472
 31
0.0
  0
LINE
  8
001
 62
               3
  5
18A
 10
556.75761019454694
 20
41.73440001768472
 30
0.0
 11
466.7576101945466
 21
41.73440001768472
 31
0.0
  0
LINE
  8
001
 62
               3
  5
18B
 10
556.75761019454694
 20
41.73440001768472
 30
0.0
 11
558.75761019454694
 21
43.73440001768472
 31
0.0
  0
LINE
  8
001
 62
               3
  5
18C
 10
466.75761019454694
 20
41.73440001768472
 30
0.0
 11
464.75761019454694
 21
43.73440001768472
 31
0.0
  0
LINE
  8
001
 62
               3
  5
18D
 10
388.53127235608736
 20
125.0194000176848
 30
0.0
 11
388.53127235608736
 21
128.44940001768481
 31
0.0
  0
LINE
  8
001
 62
               3
  5
18E
 10
394.47220662604877
 20
128.44940001768475
 30
0.0
 11
394.47220662604877
 21
125.01940001768475
 31
0.0
  0
LINE
  8
001
 62
               3
  5
18F
 10
394.47220662604877
 20
125.0194000176848
 30
0.0
 11
391.50173949106812
 21
123.3044000176848
 31
0.0
  0
LINE
  8
001
 62
               3
  5
190
 10
391.50173949106807
 20
130.16440001768478
 30
0.0
 11
388.53127235608741
 21
128.44940001768478
 31
0.0
  0
LINE
  8
001
 62
               3
  5
191
 10
391.50173949106807
 20
130.16440001768478
 30
0.0
 11
394.47220662604866
 21
128.44940001768478
 31
0.0
  0
LINE
  8
001
 62
               3
  5
192
 10
391.50173949106807
 20
123.30440001768477
 30
0.0
 11
388.53127235608741
 21
125.01940001768477
 31
0.0
  0
CIRCLE
  8
001
 62
               3
  5
193
 10
391.50173949106807
 20
126.73440001768472
 30
0.0
 40
6.5
  0
CIRCLE
  8
001
 62
               3
  5
194
 10
391.50173949106807
 20
126.73440001768472
 30
0.0
 40
3.4299999999999988
  0
LINE
  8
001
 62
               3
  5
195
 10
388.53127235608736
 20
110.0194000176848
 30
0.0
 11
388.53127235608736
 21
113.44940001768481
 31
0.0
  0
LINE
  8
001
 62
               3
  5
196
 10
394.47220662604877
 20
113.44940001768475
 30
0.0
 11
394.47220662604877
 21
110.01940001768475
 31
0.0
  0
LINE
  8
001
 62
               3
  5
197
 10
394.47220662604877
 20
110.0194000176848
 30
0.0
 11
391.50173949106812
 21
108.3044000176848
 31
0.0
  0
LINE
  8
001
 62
               3
  5
198
 10
391.50173949106807
 20
115.16440001768478
 30
0.0
 11
388.53127235608741
 21
113.44940001768478
 31
0.0
  0
LINE
  8
001
 62
               3
  5
199
 10
391.50173949106807
 20
115.16440001768478
 30
0.0
 11
394.47220662604866
 21
113.44940001768478
 31
0.0
  0
LINE
  8
001
 62
               3
  5
19A
 10
391.50173949106807
 20
108.30440001768477
 30
0.0
 11
388.53127235608741
 21
110.01940001768477
 31
0.0
  0
CIRCLE
  8
001
 62
               3
  5
19B
 10
391.50173949106807
 20
111.73440001768478
 30
0.0
 40
6.5
  0
CIRCLE
  8
001
 62
               3
  5
19C
 10
391.50173949106807
 20
111.73440001768478
 30
0.0
 40
3.4299999999999988
  0
LINE
  8
001
 62
               3
  5
19D
 10
98.531272356087555
 20
125.01940001768503
 30
0.0
 11
98.531272356087555
 21
128.44940001768504
 31
0.0
  0
LINE
  8
001
 62
               3
  5
19E
 10
104.47220662604897
 20
128.44940001768498
 30
0.0
 11
104.47220662604897
 21
125.01940001768497
 31
0.0
  0
LINE
  8
001
 62
               3
  5
19F
 10
104.47220662604897
 20
125.01940001768503
 30
0.0
 11
101.50173949106835
 21
123.30440001768503
 31
0.0
  0
LINE
  8
001
 62
               3
  5
1A0
 10
101.50173949106826
 20
130.16440001768501
 30
0.0
 11
98.531272356087641
 21
128.44940001768501
 31
0.0
  0
LINE
  8
001
 62
               3
  5
1A1
 10
101.50173949106826
 20
130.16440001768501
 30
0.0
 11
104.47220662604889
 21
128.44940001768501
 31
0.0
  0
LINE
  8
001
 62
               3
  5
1A2
 10
101.50173949106826
 20
123.304400017685
 30
0.0
 11
98.531272356087641
 21
125.019400017685
 31
0.0
  0
CIRCLE
  8
001
 62
               3
  5
1A3
 10
101.50173949106826
 20
126.73440001768495
 30
0.0
 40
6.5
  0
CIRCLE
  8
001
 62
               3
  5
1A4
 10
101.50173949106826
 20
126.73440001768495
 30
0.0
 40
3.4299999999999988
  0
LINE
  8
001
 62
               3
  5
1A5
 10
98.531272356087555
 20
110.01940001768503
 30
0.0
 11
98.531272356087555
 21
113.44940001768504
 31
0.0
  0
LINE
  8
001
 62
               3
  5
1A6
 10
104.47220662604897
 20
113.44940001768498
 30
0.0
 11
104.47220662604897
 21
110.01940001768497
 31
0.0
  0
LINE
  8
001
 62
               3
  5
1A7
 10
104.47220662604897
 20
110.01940001768503
 30
0.0
 11
101.50173949106835
 21
108.30440001768503
 31
0.0
  0
LINE
  8
001
 62
               3
  5
1A8
 10
101.50173949106826
 20
115.16440001768501
 30
0.0
 11
98.531272356087641
 21
113.44940001768501
 31
0.0
  0
LINE
  8
001
 62
               3
  5
1A9
 10
101.50173949106826
 20
115.16440001768501
 30
0.0
 11
104.47220662604889
 21
113.44940001768501
 31
0.0
  0
LINE
  8
001
 62
               3
  5
1AA
 10
101.50173949106826
 20
108.304400017685
 30
0.0
 11
98.531272356087641
 21
110.019400017685
 31
0.0
  0
CIRCLE
  8
001
 62
               3
  5
1AB
 10
101.50173949106826
 20
111.734400017685
 30
0.0
 40
6.5
  0
CIRCLE
  8
001
 62
               3
  5
1AC
 10
101.50173949106826
 20
111.734400017685
 30
0.0
 40
3.4299999999999988
  0
LINE
  8
001
 62
               3
  5
1AD
 10
106.70224200680329
 20
103.73440001768478
 30
0.0
 11
106.70224200680329
 21
107.83507012861
 31
0.0
  0
LINE
  8
001
 62
               3
  5
1AE
 10
106.70224200680329
 20
115.63372990676001
 30
0.0
 11
106.70224200680329
 21
122.04880789034044
 31
0.0
  0
LINE
  8
001
 62
               3
  5
1AF
 10
386.30123697533281
 20
103.73440001768478
 30
0.0
 11
386.30123697533281
 21
107.83507012861008
 31
0.0
  0
LINE
  8
001
 62
               3
  5
1B0
 10
386.30123697533281
 20
115.63372990675947
 30
0.0
 11
386.30123697533281
 21
122.04880789034044
 31
0.0
  0
LINE
  8
001
 62
               3
  5
1B1
 10
482.95761019454699
 20
118.23440001768461
 30
0.0
 11
476.55761019454707
 21
118.23440001768449
 31
0.0
  0
LINE
  8
001
 62
               3
  5
1B2
 10
482.95761019454699
 20
105.23440001768461
 30
0.0
 11
476.55761019454707
 21
105.23440001768472
 31
0.0
  0
LINE
  8
001
 62
               3
  5
1B3
 10
475.75761019454694
 20
106.03440001768456
 30
0.0
 11
475.75761019454694
 21
117.43440001768465
 31
0.0
  0
LINE
  8
001
 62
               3
  5
1B4
 10
483.75761019454694
 20
106.03440001768456
 30
0.0
 11
483.75761019454694
 21
117.43440001768442
 31
0.0
  0
LINE
  8
001
 62
               3
  5
1B5
 10
513.75761019454694
 20
114.48440001768483
 30
0.0
 11
513.75761019454694
 21
108.98440001768461
 31
0.0
  0
LINE
  8
001
 62
               3
  5
1B6
 10
512.50761019454694
 20
107.73440001768461
 30
0.0
 11
513.75761019454694
 21
108.98440001768449
 31
0.0
  0
LINE
  8
001
 62
               3
  5
1B7
 10
513.75761019454694
 20
114.48440001768483
 30
0.0
 11
512.50761019454694
 21
115.73440001768472
 31
0.0
  0
LINE
  8
001
 62
               3
  5
1B8
 10
512.50761019454694
 20
107.73440001768461
 30
0.0
 11
512.50761019454694
 21
115.73440001768461
 31
0.0
  0
ARC
  8
001
 62
               3
  5
1B9
 10
476.5576101945469
 20
117.43440001768465
 30
0.0
 40
0.8
 50
90.0
 51
180.0
  0
ARC
  8
001
 62
               3
  5
1BA
 10
476.5576101945469
 20
106.03440001768456
 30
0.0
 40
0.8
 50
180.0
 51
270.0
  0
ARC
  8
001
 62
               3
  5
1BB
 10
482.95761019454699
 20
106.03440001768456
 30
0.0
 40
0.8
 50
270.0
 51
0.0
  0
ARC
  8
001
 62
               3
  5
1BC
 10
482.95761019454699
 20
117.43440001768465
 30
0.0
 40
0.8
 50
0.0
 51
90.0
  0
LINE
  8
001
 62
               3
  5
1BD
 10
486.45761019454699
 20
133.23440001768461
 30
0.0
 11
480.05761019454707
 21
133.23440001768449
 31
0.0
  0
LINE
  8
001
 62
               3
  5
1BE
 10
486.45761019454699
 20
120.23440001768461
 30
0.0
 11
480.05761019454707
 21
120.23440001768472
 31
0.0
  0
LINE
  8
001
 62
               3
  5
1BF
 10
479.25761019454694
 20
121.03440001768456
 30
0.0
 11
479.25761019454694
 21
132.43440001768465
 31
0.0
  0
ARC
  8
001
 62
               3
  5
1C0
 10
480.0576101945469
 20
132.43440001768465
 30
0.0
 40
0.8
 50
90.0
 51
180.0
  0
ARC
  8
001
 62
               3
  5
1C1
 10
480.0576101945469
 20
121.03440001768456
 30
0.0
 40
0.8
 50
180.0
 51
270.0
  0
LINE
  8
001
 62
               3
  5
1C2
 10
513.75761019454694
 20
130.05790001768457
 30
0.0
 11
509.75761019454694
 21
130.05790001768457
 31
0.0
  0
LINE
  8
001
 62
               3
  5
1C3
 10
513.75761019454694
 20
130.73440001768461
 30
0.0
 11
509.75761019454694
 21
130.73440001768461
 31
0.0
  0
LINE
  8
001
 62
               3
  5
1C4
 10
513.75761019454694
 20
122.73440001768461
 30
0.0
 11
509.75761019454694
 21
122.73440001768461
 31
0.0
  0
LINE
  8
001
 62
               3
  5
1C5
 10
513.75761019454694
 20
123.41090001768464
 30
0.0
 11
509.75761019454694
 21
123.41090001768464
 31
0.0
  0
ARC
  8
001
 62
               3
  5
1C6
 10
486.45761019454699
 20
121.03440001768467
 30
0.0
 40
0.8
 50
270.0
 51
292.02431283702151
  0
ARC
  8
001
 62
               3
  5
1C7
 10
486.45761019454699
 20
132.43440001768465
 30
0.0
 40
0.8
 50
67.975687162978488
 51
90.0
  0
LINE
  8
001
 62
               3
  5
1C8
 10
512.50761019454694
 20
115.73440001768461
 30
0.0
 11
509.75761019454694
 21
115.73440001768461
 31
0.0
  0
LINE
  8
001
 62
               3
  5
1C9
 10
486.75761019454671
 20
115.73440001768461
 30
0.0
 11
483.757610194547
 21
115.73440001768461
 31
0.0
  0
LINE
  8
001
 62
               3
  5
1CA
 10
512.50761019454694
 20
107.73440001768461
 30
0.0
 11
509.75761019454694
 21
107.73440001768461
 31
0.0
  0
LINE
  8
001
 62
               3
  5
1CB
 10
486.75761019454671
 20
107.73440001768461
 30
0.0
 11
483.757610194547
 21
107.73440001768461
 31
0.0
  0
LINE
  8
001
 62
               3
  5
1CC
 10
513.18411019454697
 20
115.05790001768457
 30
0.0
 11
509.75761019454694
 21
115.05790001768457
 31
0.0
  0
LINE
  8
001
 62
               3
  5
1CD
 10
486.75761019454671
 20
115.05790001768457
 30
0.0
 11
483.75761019454694
 21
115.05790001768457
 31
0.0
  0
LINE
  8
001
 62
               3
  5
1CE
 10
513.18411019454697
 20
108.41090001768464
 30
0.0
 11
509.75761019454694
 21
108.41090001768464
 31
0.0
  0
LINE
  8
001
 62
               3
  5
1CF
 10
486.75761019454671
 20
108.41090001768464
 30
0.0
 11
483.75761019454694
 21
108.41090001768464
 31
0.0
  0
LINE
  8
001
 62
               3
  5
1D0
 10
398.00173949106807
 20
225.9717810212577
 30
0.0
 11
398.00173949106795
 21
219.57178102125778
 31
0.0
  0
LINE
  8
001
 62
               3
  5
1D1
 10
397.20173949106811
 20
218.77178102125765
 30
0.0
 11
385.80173949106802
 21
218.77178102125765
 31
0.0
  0
ARC
  8
001
 62
               3
  5
1D2
 10
385.80173949106802
 20
219.57178102125761
 30
0.0
 40
0.8
 50
180.0
 51
270.0
  0
ARC
  8
001
 62
               3
  5
1D3
 10
397.20173949106811
 20
219.57178102125761
 30
0.0
 40
0.8
 50
270.0
 51
0.0
  0
LINE
  8
001
 62
               3
  5
1D4
 10
397.20173949106811
 20
215.27178102125765
 30
0.0
 11
385.80173949106802
 21
215.27178102125765
 31
0.0
  0
ARC
  8
001
 62
               3
  5
1D5
 10
385.80173949106802
 20
216.07178102125761
 30
0.0
 40
0.8
 50
180.0
 51
270.0
  0
ARC
  8
001
 62
               3
  5
1D6
 10
397.20173949106811
 20
216.07178102125761
 30
0.0
 40
0.8
 50
270.0
 51
0.0
  0
LINE
  8
001
 62
               3
  5
1D7
 10
385.00173949106807
 20
218.77178102125765
 30
0.0
 11
385.00173949106812
 21
216.07178102125778
 31
0.0
  0
LINE
  8
001
 62
               3
  5
1D8
 10
398.00173949106807
 20
218.77178102125765
 30
0.0
 11
398.00173949106801
 21
216.07178102125778
 31
0.0
  0
LINE
  8
001
 62
               3
  5
1D9
 10
395.50173949106807
 20
253.27178102125765
 30
0.0
 11
395.50173949106807
 21
249.27178102125765
 31
0.0
  0
LINE
  8
001
 62
               3
  5
1DA
 10
394.82523949106803
 20
253.27178102125765
 30
0.0
 11
394.82523949106803
 21
249.27178102125765
 31
0.0
  0
LINE
  8
001
 62
               3
  5
1DB
 10
388.1782394910681
 20
253.27178102125765
 30
0.0
 11
388.1782394910681
 21
249.27178102125765
 31
0.0
  0
LINE
  8
001
 62
               3
  5
1DC
 10
387.50173949106807
 20
253.27178102125765
 30
0.0
 11
387.50173949106807
 21
249.27178102125765
 31
0.0
  0
LINE
  8
001
 62
               3
  5
1DD
 10
385.00173949106807
 20
224.30676529892321
 30
0.0
 11
385.00173949106812
 21
219.57178102125778
 31
0.0
  0
ARC
  8
001
 62
               3
  5
1DE
 10
397.20173949106788
 20
225.9717810212577
 30
0.0
 40
0.8
 50
0.0
 51
22.024312837036607
  0
LINE
  8
001
 62
               3
  5
1DF
 10
95.001739491068037
 20
225.9717810212577
 30
0.0
 11
95.00173949106815
 21
219.57178102125778
 31
0.0
  0
LINE
  8
001
 62
               3
  5
1E0
 10
107.20173949106808
 20
218.77178102125765
 30
0.0
 11
95.801739491067991
 21
218.77178102125765
 31
0.0
  0
ARC
  8
001
 62
               3
  5
1E1
 10
95.801739491067991
 20
219.57178102125761
 30
0.0
 40
0.8
 50
180.0
 51
270.0
  0
ARC
  8
001
 62
               3
  5
1E2
 10
107.20173949106808
 20
219.57178102125761
 30
0.0
 40
0.8
 50
270.0
 51
0.0
  0
LINE
  8
001
 62
               3
  5
1E3
 10
107.20173949106808
 20
215.27178102125765
 30
0.0
 11
95.801739491067991
 21
215.27178102125765
 31
0.0
  0
ARC
  8
001
 62
               3
  5
1E4
 10
95.801739491067991
 20
216.07178102125761
 30
0.0
 40
0.8
 50
180.0
 51
270.0
  0
ARC
  8
001
 62
               3
  5
1E5
 10
107.20173949106808
 20
216.07178102125761
 30
0.0
 40
0.8
 50
270.0
 51
0.0
  0
LINE
  8
001
 62
               3
  5
1E6
 10
95.001739491068037
 20
218.77178102125765
 30
0.0
 11
95.001739491068079
 21
216.07178102125778
 31
0.0
  0
LINE
  8
001
 62
               3
  5
1E7
 10
108.00173949106804
 20
218.77178102125765
 30
0.0
 11
108.00173949106799
 21
216.07178102125778
 31
0.0
  0
LINE
  8
001
 62
               3
  5
1E8
 10
105.50173949106804
 20
253.27178102125765
 30
0.0
 11
105.50173949106804
 21
249.27178102125765
 31
0.0
  0
LINE
  8
001
 62
               3
  5
1E9
 10
104.825239491068
 20
253.27178102125765
 30
0.0
 11
104.825239491068
 21
249.27178102125765
 31
0.0
  0
LINE
  8
001
 62
               3
  5
1EA
 10
98.178239491068069
 20
253.27178102125765
 30
0.0
 11
98.178239491068069
 21
249.27178102125765
 31
0.0
  0
LINE
  8
001
 62
               3
  5
1EB
 10
97.501739491068037
 20
253.27178102125765
 30
0.0
 11
97.501739491068037
 21
249.27178102125765
 31
0.0
  0
LINE
  8
001
 62
               3
  5
1EC
 10
108.00173949106804
 20
224.30676529892321
 30
0.0
 11
108.00173949106795
 21
219.57178102125778
 31
0.0
  0
ARC
  8
001
 62
               3
  5
1ED
 10
95.801739491068219
 20
225.9717810212577
 30
0.0
 40
0.8
 50
157.9756871629634
 51
180.0
  0
ARC
  8
001
 62
               3
  5
1EE
 10
146.50173949106826
 20
251.27178102125765
 30
0.0
 40
47.0
 50
182.43885469094994
 51
177.56114530905023
  0
ARC
  8
001
 62
               3
  5
1EF
 10
346.50173949106807
 20
251.27178102125765
 30
0.0
 40
47.0
 50
199.87687407007877
 51
357.56114530905006
  0
ARC
  8
001
 62
               3
  5
1F0
 10
346.50173949106807
 20
251.27178102125765
 30
0.0
 40
47.0
 50
2.4388546909498046
 51
160.12312592992117
  0
LINE
  8
001
  6
CENTER
  5
1F1
 10
86.210310042721829
 20
251.27178102125765
 30
0.0
 11
405.55353490880088
 21
251.27178102125765
 31
0.0
  0
CIRCLE
  8
001
 62
               3
  5
1F2
 10
346.50173949106807
 20
251.27178102125765
 30
0.0
 40
37.0
  0
TEXT
  8
001
  5
1F3
 10
619.3090331059002
 20
59.827713264228322
 30
0.0
 40
15.0
  1
2006.1.31
 41
0.6750000675000067
  0
TEXT
  8
001
  5
1F4
 10
619.3090331059002
 20
42.327713264228322
 30
0.0
 40
15.0
  1
FS-74PS
 41
0.5
  0
ENDSEC
  0
EOF
