  0
SECTION
  2
HEADER
  9
$ACADVER
  1
AC1009
  9
$DWGCODEPAGE
  3
dos932
  9
$INSBASE
 10
0.0
 20
0.0
 30
0.0
  9
$EXTMIN
 10
40.548004150390625
 20
42.5849609375
 30
1.0000000000000000E+20
  9
$EXTMAX
 10
370.87200927734375
 20
369.4013671875
 30
-1.0000000000000000E+20
  9
$LIMMIN
 10
0.0
 20
0.0
  9
$LIMMAX
 10
12.0
 20
9.0
  9
$ORTHOMODE
 70
               0
  9
$REGENMODE
 70
               1
  9
$FILLMODE
 70
               1
  9
$QTEXTMODE
 70
               0
  9
$MIRRTEXT
 70
               1
  9
$DRAGMODE
 70
               2
  9
$LTSCALE
 40
5.5054000854492191
  9
$OSMODE
 70
               0
  9
$ATTMODE
 70
               1
  9
$TEXTSIZE
 40
3.2000000000000002
  9
$TRACEWID
 40
0.05
  9
$TEXTSTYLE
  7
STANDARD
  9
$CLAYER
  8
0
  9
$CELTYPE
  6
CONTINUOUS
  9
$CECOLOR
 62
             256
  9
$DIMSCALE
 40
1.0
  9
$DIMASZ
 40
0.18
  9
$DIMEXO
 40
0.0625
  9
$DIMDLI
 40
0.38
  9
$DIMRND
 40
0.0
  9
$DIMDLE
 40
0.0
  9
$DIMEXE
 40
0.18
  9
$DIMTP
 40
0.0
  9
$DIMTM
 40
0.0
  9
$DIMTXT
 40
0.18
  9
$DIMCEN
 40
0.09
  9
$DIMTSZ
 40
0.0
  9
$DIMTOL
 70
               0
  9
$DIMLIM
 70
               0
  9
$DIMTIH
 70
               1
  9
$DIMTOH
 70
               1
  9
$DIMSE1
 70
               0
  9
$DIMSE2
 70
               0
  9
$DIMTAD
 70
               0
  9
$DIMZIN
 70
               0
  9
$DIMBLK
  1

  9
$DIMASO
 70
               1
  9
$DIMSHO
 70
               1
  9
$DIMPOST
  1

  9
$DIMAPOST
  1

  9
$DIMALT
 70
               0
  9
$DIMALTD
 70
               2
  9
$DIMALTF
 40
25.399999999999999
  9
$DIMLFAC
 40
1.0
  9
$DIMTOFL
 70
               0
  9
$DIMTVP
 40
0.0
  9
$DIMTIX
 70
               0
  9
$DIMSOXD
 70
               0
  9
$DIMSAH
 70
               0
  9
$DIMBLK1
  1

  9
$DIMBLK2
  1

  9
$DIMSTYLE
  2
STANDARD
  9
$DIMCLRD
 70
               0
  9
$DIMCLRE
 70
               0
  9
$DIMCLRT
 70
               0
  9
$DIMTFAC
 40
1.0
  9
$DIMGAP
 40
0.09
  9
$LUNITS
 70
               2
  9
$LUPREC
 70
               4
  9
$AXISMODE
 70
               0
  9
$AXISUNIT
 10
0.0
 20
0.0
  9
$SKETCHINC
 40
0.1
  9
$FILLETRAD
 40
0.0
  9
$AUNITS
 70
               0
  9
$AUPREC
 70
               0
  9
$MENU
  1
acad
  9
$ELEVATION
 40
0.0
  9
$PELEVATION
 40
0.0
  9
$THICKNESS
 40
0.0
  9
$LIMCHECK
 70
               0
  9
$BLIPMODE
 70
               1
  9
$CHAMFERA
 40
0.0
  9
$CHAMFERB
 40
0.0
  9
$SKPOLY
 70
               0
  9
$TDCREATE
 40
0.000000000
  9
$TDUPDATE
 40
0.000000000
  9
$TDINDWG
 40
0.0000000000
  9
$TDUSRTIMER
 40
0.0000000000
  9
$USRTIMER
 70
               1
  9
$ANGBASE
 50
0.0
  9
$ANGDIR
 70
               0
  9
$PDMODE
 70
               0
  9
$PDSIZE
 40
0.0
  9
$PLINEWID
 40
0.0
  9
$COORDS
 70
               1
  9
$SPLFRAME
 70
               0
  9
$SPLINETYPE
 70
               6
  9
$SPLINESEGS
 70
               8
  9
$ATTDIA
 70
               0
  9
$ATTREQ
 70
               1
  9
$HANDLING
 70
               1
  9
$HANDSEED
  5
197
  9
$SURFTAB1
 70
               6
  9
$SURFTAB2
 70
               6
  9
$SURFTYPE
 70
               6
  9
$SURFU
 70
               6
  9
$SURFV
 70
               6
  9
$UCSNAME
  2

  9
$UCSORG
 10
0.0
 20
0.0
 30
0.0
  9
$UCSXDIR
 10
1.0
 20
0.0
 30
0.0
  9
$UCSYDIR
 10
0.0
 20
1.0
 30
0.0
  9
$PUCSNAME
  2

  9
$PUCSORG
 10
0.0
 20
0.0
 30
0.0
  9
$PUCSXDIR
 10
1.0
 20
0.0
 30
0.0
  9
$PUCSYDIR
 10
0.0
 20
1.0
 30
0.0
  9
$USERI1
 70
               0
  9
$USERI2
 70
               0
  9
$USERI3
 70
               0
  9
$USERI4
 70
               0
  9
$USERI5
 70
               0
  9
$USERR1
 40
0.0
  9
$USERR2
 40
0.0
  9
$USERR3
 40
0.0
  9
$USERR4
 40
0.0
  9
$USERR5
 40
0.0
  9
$WORLDVIEW
 70
               1
  9
$SHADEDGE
 70
               3
  9
$SHADEDIF
 70
              70
  9
$TILEMODE
 70
               1
  9
$MAXACTVP
 70
              16
  9
$PINSBASE
 10
0.0
 20
0.0
 30
0.0
  9
$PLIMCHECK
 70
               0
  9
$PEXTMIN
 10
1.0000000000000000E+20
 20
1.0000000000000000E+20
 30
1.0000000000000000E+20
  9
$PEXTMAX
 10
-1.0000000000000000E+20
 20
-1.0000000000000000E+20
 30
-1.0000000000000000E+20
  9
$PLIMMIN
 10
0.0
 20
0.0
  9
$PLIMMAX
 10
12.0
 20
9.0
  9
$UNITMODE
 70
               0
  9
$VISRETAIN
 70
               0
  9
$PLINEGEN
 70
               0
  9
$PSLTSCALE
 70
               1
  9
$TREEDEPTH
 70
            3020
  0
ENDSEC
  0
SECTION
  2
TABLES
  0
TABLE
  2
VPORT
 70
               1
  0
VPORT
  2
*ACTIVE
 70
               0
 10
0.0
 20
0.0
 11
1.0
 21
1.0
 12
205.71000671386719
 22
205.9931640625
 13
0.0
 23
0.0
 14
1.0
 24
1.0
 15
0.0
 25
0.0
 16
0.0
 26
0.0
 36
1.0
 17
0.0
 27
0.0
 37
0.0
 40
330.08457031249998
 41
1.6912879999999999
 42
50.0
 43
0.0
 44
0.0
 50
0.0
 51
0.0
 71
               0
 72
             100
 73
               1
 74
               1
 75
               0
 76
               0
 77
               0
 78
               0
  0
ENDTAB
  0
TABLE
  2
LTYPE
 70
               5
  0
LTYPE
  2
CONTINUOUS
 70
              64
  3
Solid line
 72
              65
 73
               0
 40
0.0
  0
LTYPE
  2
DASHED
 70
              64
  3
DASHED
 72
              65
 73
               2
 40
0.75
 49
0.5
 49
-0.25
  0
LTYPE
  2
HIDDEN
 70
              64
  3
HIDDEN
 72
              65
 73
               2
 40
0.375
 49
0.25
 49
-0.125
  0
LTYPE
  2
CENTER
 70
              64
  3
CENTER
 72
              65
 73
               4
 40
2.0
 49
1.25
 49
-0.25
 49
0.25
 49
-0.25
  0
LTYPE
  2
PHANTOM
 70
              64
  3
PHANTOM
 72
              65
 73
               6
 40
2.5
 49
1.25
 49
-0.25
 49
0.25
 49
-0.25
 49
0.25
 49
-0.25
  0
ENDTAB
  0
TABLE
  2
LAYER
 70
               2
  0
LAYER
  2
0
 70
               0
 62
               7
  6
CONTINUOUS
  0
LAYER
  2
001
 70
               0
 62
               7
  6
CONTINUOUS
  0
ENDTAB
  0
TABLE
  2
STYLE
 70
               2
  0
STYLE
  2
STANDARD
 70
               0
 40
0.0
 41
1.0
 50
0.0
 71
               0
 42
0.2
  3
TXT
  4
BIGFONT
  0
STYLE
  2
TATEGAKI
 70
               4
 40
1.0
 41
1.0
 50
0.0
 71
               0
 42
0.2
  3
TXT
  4
BIGFONT
  0
ENDTAB
  0
TABLE
  2
VIEW
 70
               0
  0
ENDTAB
  0
TABLE
  2
UCS
 70
               0
  0
ENDTAB
  0
TABLE
  2
APPID
 70
               1
  0
APPID
  2
ACAD
 70
               0
  0
ENDTAB
  0
TABLE
  2
DIMSTYLE
 70
               1
  0
DIMSTYLE
  2
STANDARD
 70
               0
  3

  4

  5

  6

  7

 40
1.0
 41
0.18
 42
0.0625
 43
0.38
 44
0.18
 45
0.0
 46
0.0
 47
0.0
 48
0.0
 71
               0
 72
               0
 73
               1
 74
               1
 75
               0
 76
               0
 77
               0
 78
               0
140
0.18
141
0.09
142
0.0
143
25.399999999999999
144
1.0
145
0.0
146
1.0
147
0.09
170
               0
171
               2
172
               0
173
               0
174
               0
175
               0
176
               0
177
               0
178
               0
  0
ENDTAB
  0
ENDSEC
  0
SECTION
  2
BLOCKS
  0
ENDSEC
  0
SECTION
  2
ENTITIES
  0
LINE
  8
001
 62
               3
  5
23
 10
277.54799744022523
 20
361.40137881045769
 30
0.0
 11
277.54799744022523
 21
273.40137881045757
 31
0.0
  0
ARC
  8
001
 62
               3
  5
24
 10
274.54799744022523
 20
361.40137881045769
 30
0.0
 40
3.0
 50
0.0
 51
90.0
  0
LINE
  8
001
 62
               3
  5
25
 10
176.547997440225
 20
319.40137881045769
 30
0.0
 11
176.547997440225
 21
334.40137881045769
 31
0.0
  0
LINE
  8
001
 62
               3
  5
26
 10
190.0156568039514
 20
337.40137881045769
 30
0.0
 11
179.54799744022489
 21
337.40137881045769
 31
0.0
  0
ARC
  8
001
 62
               3
  5
27
 10
274.54799744022523
 20
273.40137881045763
 30
0.0
 40
3.0
 50
270.0
 51
0.0
  0
CIRCLE
  8
001
 62
               3
  5
28
 10
232.547997440225
 20
317.40137881045769
 30
0.0
 40
37.0
  0
LINE
  8
001
 62
               3
  5
29
 10
274.54799744022523
 20
364.40137881045769
 30
0.0
 11
232.54799744022489
 21
364.40137881045769
 31
0.0
  0
LINE
  8
001
 62
               3
  5
2A
 10
274.54799744022523
 20
270.40137881045763
 30
0.0
 11
232.54799744022489
 21
270.40137881045763
 31
0.0
  0
LINE
  8
001
 62
               3
  5
2B
 10
280.54799744022523
 20
280.40137881045763
 30
0.0
 11
280.54799744022523
 21
354.40137881045774
 31
0.0
  0
LINE
  8
001
 62
               3
  5
2C
 10
367.54799744022523
 20
282.40137881045757
 30
0.0
 11
367.54799744022523
 21
352.40137881045769
 31
0.0
  0
LINE
  8
001
 62
               3
  5
2D
 10
277.54799744022523
 20
353.40137881045769
 30
0.0
 11
280.54799744022523
 21
353.40137881045769
 31
0.0
  0
LINE
  8
001
 62
               3
  5
2E
 10
365.54799744022523
 20
354.40137881045769
 30
0.0
 11
367.54799744022523
 21
352.40137881045769
 31
0.0
  0
LINE
  8
001
 62
               3
  5
2F
 10
277.54799744022523
 20
281.40137881045763
 30
0.0
 11
280.54799744022523
 21
281.40137881045763
 31
0.0
  0
LINE
  8
001
 62
               3
  5
30
 10
367.54799744022523
 20
282.40137881045757
 30
0.0
 11
365.54799744022523
 21
280.40137881045757
 31
0.0
  0
LINE
  8
001
  6
CENTER
  5
31
 10
232.547997440225
 20
265.40137881045763
 30
0.0
 11
232.547997440225
 21
369.40137881045774
 31
0.0
  0
LINE
  8
001
 62
               3
  5
32
 10
179.547997440225
 20
292.40137881045757
 30
0.0
 11
190.07447627703442
 21
292.40137881045757
 31
0.0
  0
ARC
  8
001
 62
               3
  5
33
 10
179.547997440225
 20
334.40137881045769
 30
0.0
 40
3.0
 50
90.0
 51
180.0
  0
ARC
  8
001
 62
               3
  5
34
 10
179.547997440225
 20
295.40137881045757
 30
0.0
 40
3.0
 50
180.0
 51
270.0
  0
ARC
  8
001
 62
               3
  5
35
 10
190.07447627703436
 20
287.40137881045757
 30
0.0
 40
5.0
 50
35.234417984581242
 51
90.0
  0
LINE
  8
001
 62
               3
  5
36
 10
176.547997440225
 20
315.40137881045769
 30
0.0
 11
176.547997440225
 21
295.40137881045757
 31
0.0
  0
LINE
  8
001
 62
               3
  5
37
 10
365.54799744022523
 20
280.40137881045763
 30
0.0
 11
280.54799744022523
 21
280.40137881045763
 31
0.0
  0
LINE
  8
001
  6
CENTER
  5
38
 10
87.54799744022489
 20
107.40137881045774
 30
0.0
 11
87.54799744022489
 21
227.40137881045774
 31
0.0
  0
LINE
  8
001
 62
               3
  5
39
 10
42.54799744022489
 20
222.40137881045774
 30
0.0
 11
132.54799744022523
 21
222.40137881045774
 31
0.0
  0
LINE
  8
001
 62
               3
  5
3A
 10
40.54799744022489
 20
114.40137881045774
 30
0.0
 11
40.54799744022489
 21
220.40137881045774
 31
0.0
  0
LINE
  8
001
 62
               3
  5
3B
 10
42.54799744022489
 20
222.40137881045774
 30
0.0
 11
40.54799744022489
 21
220.40137881045774
 31
0.0
  0
LINE
  8
001
 62
               3
  5
3C
 10
134.54799744022489
 20
220.40137881045774
 30
0.0
 11
134.54799744022489
 21
114.40137881045774
 31
0.0
  0
LINE
  8
001
 62
               3
  5
3D
 10
132.54799744022489
 20
222.40137881045774
 30
0.0
 11
134.54799744022489
 21
220.40137881045774
 31
0.0
  0
LINE
  8
001
 62
               3
  5
3E
 10
42.54799744022489
 20
112.40137881045774
 30
0.0
 11
132.54799744022523
 21
112.40137881045774
 31
0.0
  0
LINE
  8
001
 62
               3
  5
3F
 10
42.54799744022489
 20
112.40137881045774
 30
0.0
 11
40.54799744022489
 21
114.40137881045774
 31
0.0
  0
LINE
  8
001
 62
               3
  5
40
 10
132.54799744022489
 20
112.40137881045774
 30
0.0
 11
134.54799744022489
 21
114.40137881045774
 31
0.0
  0
LINE
  8
001
 62
               3
  5
41
 10
43.005882537586785
 20
172.40137881045774
 30
0.0
 11
85.547997440224904
 21
172.40137881045774
 31
0.0
  0
LINE
  8
001
 62
               3
  5
42
 10
132.09011234286493
 20
172.40137881045774
 30
0.0
 11
89.547997440224833
 21
172.40137881045774
 31
0.0
  0
LINE
  8
001
 62
               3
  5
43
 10
132.09011256708857
 20
162.40137881045774
 30
0.0
 11
43.005882537584668
 21
162.40137881045774
 31
0.0
  0
LINE
  8
001
 62
               3
  5
44
 10
89.54799744022489
 20
172.40137881045774
 30
0.0
 11
89.54799744022489
 21
222.40137881045774
 31
0.0
  0
LINE
  8
001
 62
               3
  5
45
 10
85.54799744022489
 20
172.40137881045774
 30
0.0
 11
85.54799744022489
 21
222.40137881045774
 31
0.0
  0
LINE
  8
001
 62
               3
  5
46
 10
42.105726370217894
 20
169.40137881045774
 30
0.0
 11
42.105726370217894
 21
165.40137881045774
 31
0.0
  0
LINE
  8
001
 62
               3
  5
47
 10
132.99026851023189
 20
165.40137881045774
 30
0.0
 11
132.99026851023189
 21
169.40137881045774
 31
0.0
  0
POLYLINE
  8
001
 62
               3
  5
48
 66
               1
 10
0.0
 20
0.0
 30
0.0
  0
VERTEX
  8
001
 62
               3
  5
49
 10
122.54799744022489
 20
169.40137881045774
 30
0.0
  0
VERTEX
  8
001
 62
               3
  5
4A
 10
122.54340429148805
 20
169.64247762781315
 30
0.0
  0
VERTEX
  8
001
 62
               3
  5
4B
 10
122.53452365472043
 20
169.88339486151773
 30
0.0
  0
VERTEX
  8
001
 62
               3
  5
4C
 10
122.51840175862884
 20
170.11781296353604
 30
0.0
  0
VERTEX
  8
001
 62
               3
  5
4D
 10
122.49465432231847
 20
170.35162428413707
 30
0.0
  0
VERTEX
  8
001
 62
               3
  5
4E
 10
122.46535778899816
 20
170.57243457370964
 30
0.0
  0
VERTEX
  8
001
 62
               3
  5
4F
 10
122.42881134287705
 20
170.7921564294376
 30
0.0
  0
VERTEX
  8
001
 62
               3
  5
50
 10
122.38769061821787
 20
170.99418923568774
 30
0.0
  0
VERTEX
  8
001
 62
               3
  5
51
 10
122.33840617039141
 20
171.1943432312965
 30
0.0
  0
VERTEX
  8
001
 62
               3
  5
52
 10
122.28497585776923
 20
171.37551758780938
 30
0.0
  0
VERTEX
  8
001
 62
               3
  5
53
 10
122.2223874746598
 20
171.55386914297654
 30
0.0
  0
VERTEX
  8
001
 62
               3
  5
54
 10
122.15863448137206
 20
171.70731949732152
 30
0.0
  0
VERTEX
  8
001
 62
               3
  5
55
 10
122.08464173151896
 20
171.85569544688391
 30
0.0
  0
VERTEX
  8
001
 62
               3
  5
56
 10
122.00757002139315
 20
171.98303258569334
 30
0.0
  0
VERTEX
  8
001
 62
               3
  5
57
 10
121.91897088201824
 20
172.10382829338513
 30
0.0
  0
VERTEX
  8
001
 62
               3
  5
58
 10
121.8333166928287
 20
172.19907440211688
 30
0.0
  0
VERTEX
  8
001
 62
               3
  5
59
 10
121.73550427993268
 20
172.27835845995301
 30
0.0
  0
VERTEX
  8
001
 62
               3
  5
5A
 10
121.5619085323526
 20
172.35535229834727
 30
0.0
  0
VERTEX
  8
001
 62
               3
  5
5B
 10
121.37106649080044
 20
172.40137881045774
 30
0.0
  0
SEQEND
  8
001
  5
5C
  0
LINE
  8
001
 62
               3
  5
5D
 10
122.54799744022489
 20
165.40137881045774
 30
0.0
 11
122.54799744022489
 21
169.40137881045774
 31
0.0
  0
POLYLINE
  8
001
 62
               3
  5
5E
 66
               1
 10
0.0
 20
0.0
 30
0.0
  0
VERTEX
  8
001
 62
               3
  5
5F
 10
121.37106649080044
 20
162.40137881045774
 30
0.0
  0
VERTEX
  8
001
 62
               3
  5
60
 10
121.48814545984671
 20
162.41833838516632
 30
0.0
  0
VERTEX
  8
001
 62
               3
  5
61
 10
121.60060523012879
 20
162.44864349973031
 30
0.0
  0
VERTEX
  8
001
 62
               3
  5
62
 10
121.71428145560309
 20
162.50850368917071
 30
0.0
  0
VERTEX
  8
001
 62
               3
  5
63
 10
121.81605950312229
 20
162.58982767889501
 30
0.0
  0
VERTEX
  8
001
 62
               3
  5
64
 10
121.92160124917939
 20
162.70233722460594
 30
0.0
  0
VERTEX
  8
001
 62
               3
  5
65
 10
122.01222324878597
 20
162.82634844702829
 30
0.0
  0
VERTEX
  8
001
 62
               3
  5
66
 10
122.10515012184526
 20
162.98562946623073
 30
0.0
  0
VERTEX
  8
001
 62
               3
  5
67
 10
122.18371125812178
 20
163.15276101470582
 30
0.0
  0
VERTEX
  8
001
 62
               3
  5
68
 10
122.25679777546227
 20
163.34276093397821
 30
0.0
  0
VERTEX
  8
001
 62
               3
  5
69
 10
122.31820651072047
 20
163.53677659206755
 30
0.0
  0
VERTEX
  8
001
 62
               3
  5
6A
 10
122.37626491760378
 20
163.75907866062389
 30
0.0
  0
VERTEX
  8
001
 62
               3
  5
6B
 10
122.42390189159102
 20
163.98385199632406
 30
0.0
  0
VERTEX
  8
001
 62
               3
  5
6C
 10
122.46298343660469
 20
164.21431626494922
 30
0.0
  0
VERTEX
  8
001
 62
               3
  5
6D
 10
122.49394514450245
 20
164.44603536137993
 30
0.0
  0
VERTEX
  8
001
 62
               3
  5
6E
 10
122.51894130885449
 20
164.69165940100572
 30
0.0
  0
VERTEX
  8
001
 62
               3
  5
6F
 10
122.53562912130349
 20
164.93792860737432
 30
0.0
  0
VERTEX
  8
001
 62
               3
  5
70
 10
122.54381692145243
 20
165.16957015629529
 30
0.0
  0
VERTEX
  8
001
 62
               3
  5
71
 10
122.54799744022495
 20
165.40137881045774
 30
0.0
  0
SEQEND
  8
001
  5
72
  0
POLYLINE
  8
001
 62
               3
  5
73
 66
               1
 10
0.0
 20
0.0
 30
0.0
  0
VERTEX
  8
001
 62
               3
  5
74
 10
52.54799744022489
 20
165.40137881045774
 30
0.0
  0
VERTEX
  8
001
 62
               3
  5
75
 10
52.552590588961735
 20
165.16027999310234
 30
0.0
  0
VERTEX
  8
001
 62
               3
  5
76
 10
52.561471225729349
 20
164.91936275939776
 30
0.0
  0
VERTEX
  8
001
 62
               3
  5
77
 10
52.577593121820939
 20
164.68494465737945
 30
0.0
  0
VERTEX
  8
001
 62
               3
  5
78
 10
52.601340558131312
 20
164.45113333677841
 30
0.0
  0
VERTEX
  8
001
 62
               3
  5
79
 10
52.630637091451618
 20
164.23032304720584
 30
0.0
  0
VERTEX
  8
001
 62
               3
  5
7A
 10
52.667183537572726
 20
164.01060119147789
 30
0.0
  0
VERTEX
  8
001
 62
               3
  5
7B
 10
52.708304262231906
 20
163.80856838522774
 30
0.0
  0
VERTEX
  8
001
 62
               3
  5
7C
 10
52.757588710058371
 20
163.60841438961899
 30
0.0
  0
VERTEX
  8
001
 62
               3
  5
7D
 10
52.811019022680554
 20
163.4272400331061
 30
0.0
  0
VERTEX
  8
001
 62
               3
  5
7E
 10
52.873607405789983
 20
163.24888847793895
 30
0.0
  0
VERTEX
  8
001
 62
               3
  5
7F
 10
52.937360399077718
 20
163.09543812359396
 30
0.0
  0
VERTEX
  8
001
 62
               3
  5
80
 10
53.011353148930823
 20
162.94706217403157
 30
0.0
  0
VERTEX
  8
001
 62
               3
  5
81
 10
53.08842485905663
 20
162.81972503522215
 30
0.0
  0
VERTEX
  8
001
 62
               3
  5
82
 10
53.177023998431537
 20
162.69892932753035
 30
0.0
  0
VERTEX
  8
001
 62
               3
  5
83
 10
53.262678187621077
 20
162.60368321879861
 30
0.0
  0
VERTEX
  8
001
 62
               3
  5
84
 10
53.360490600517096
 20
162.52439916096247
 30
0.0
  0
VERTEX
  8
001
 62
               3
  5
85
 10
53.534086348097205
 20
162.44740532256822
 30
0.0
  0
VERTEX
  8
001
 62
               3
  5
86
 10
53.724928389649392
 20
162.40137881045774
 30
0.0
  0
SEQEND
  8
001
  5
87
  0
LINE
  8
001
 62
               3
  5
88
 10
52.54799744022489
 20
169.40137881045774
 30
0.0
 11
52.54799744022489
 21
165.40137881045774
 31
0.0
  0
POLYLINE
  8
001
 62
               3
  5
89
 66
               1
 10
0.0
 20
0.0
 30
0.0
  0
VERTEX
  8
001
 62
               3
  5
8A
 10
53.724928389649335
 20
172.40137881045774
 30
0.0
  0
VERTEX
  8
001
 62
               3
  5
8B
 10
53.607849420603074
 20
172.38441923574916
 30
0.0
  0
VERTEX
  8
001
 62
               3
  5
8C
 10
53.495389650320988
 20
172.35411412118518
 30
0.0
  0
VERTEX
  8
001
 62
               3
  5
8D
 10
53.381713424846694
 20
172.29425393174478
 30
0.0
  0
VERTEX
  8
001
 62
               3
  5
8E
 10
53.27993537732749
 20
172.21292994202048
 30
0.0
  0
VERTEX
  8
001
 62
               3
  5
8F
 10
53.174393631270391
 20
172.10042039630954
 30
0.0
  0
VERTEX
  8
001
 62
               3
  5
90
 10
53.083771631663808
 20
171.97640917388719
 30
0.0
  0
VERTEX
  8
001
 62
               3
  5
91
 10
52.990844758604531
 20
171.81712815468475
 30
0.0
  0
VERTEX
  8
001
 62
               3
  5
92
 10
52.912283622328005
 20
171.64999660620967
 30
0.0
  0
VERTEX
  8
001
 62
               3
  5
93
 10
52.839197104987512
 20
171.45999668693727
 30
0.0
  0
VERTEX
  8
001
 62
               3
  5
94
 10
52.777788369729308
 20
171.26598102884793
 30
0.0
  0
VERTEX
  8
001
 62
               3
  5
95
 10
52.719729962846003
 20
171.0436789602916
 30
0.0
  0
VERTEX
  8
001
 62
               3
  5
96
 10
52.672092988858765
 20
170.81890562459142
 30
0.0
  0
VERTEX
  8
001
 62
               3
  5
97
 10
52.633011443845085
 20
170.58844135596627
 30
0.0
  0
VERTEX
  8
001
 62
               3
  5
98
 10
52.602049735947332
 20
170.35672225953556
 30
0.0
  0
VERTEX
  8
001
 62
               3
  5
99
 10
52.577053571595293
 20
170.11109821990976
 30
0.0
  0
VERTEX
  8
001
 62
               3
  5
9A
 10
52.560365759146293
 20
169.86482901354117
 30
0.0
  0
VERTEX
  8
001
 62
               3
  5
9B
 10
52.552177958997348
 20
169.63318746462019
 30
0.0
  0
VERTEX
  8
001
 62
               3
  5
9C
 10
52.547997440224833
 20
169.40137881045774
 30
0.0
  0
SEQEND
  8
001
  5
9D
  0
POLYLINE
  8
001
 62
               3
  5
9E
 66
               1
 10
0.0
 20
0.0
 30
0.0
  0
VERTEX
  8
001
 62
               3
  5
9F
 10
43.005882537584625
 20
172.40137881045774
 30
0.0
  0
VERTEX
  8
001
 62
               3
  5
A0
 10
42.917793468288899
 20
172.38428211648855
 30
0.0
  0
VERTEX
  8
001
 62
               3
  5
A1
 10
42.834781506213801
 20
172.3559981312948
 30
0.0
  0
VERTEX
  8
001
 62
               3
  5
A2
 10
42.748264931235859
 20
172.29789504815014
 30
0.0
  0
VERTEX
  8
001
 62
               3
  5
A3
 10
42.674097917908398
 20
172.22126506531285
 30
0.0
  0
VERTEX
  8
001
 62
               3
  5
A4
 10
42.594435497170743
 20
172.1129663609868
 30
0.0
  0
VERTEX
  8
001
 62
               3
  5
A5
 10
42.527790575538575
 20
171.99750004912764
 30
0.0
  0
VERTEX
  8
001
 62
               3
  5
A6
 10
42.457910280843151
 20
171.84677127539362
 30
0.0
  0
VERTEX
  8
001
 62
               3
  5
A7
 10
42.399340563719363
 20
171.69083815047912
 30
0.0
  0
VERTEX
  8
001
 62
               3
  5
A8
 10
42.342614915301795
 20
171.50745010890392
 30
0.0
  0
VERTEX
  8
001
 62
               3
  5
A9
 10
42.295122599222907
 20
171.32159781620484
 30
0.0
  0
VERTEX
  8
001
 62
               3
  5
AA
 10
42.249717931899255
 20
171.10754415932513
 30
0.0
  0
VERTEX
  8
001
 62
               3
  5
AB
 10
42.212281282013578
 20
170.89191886655186
 30
0.0
  0
VERTEX
  8
001
 62
               3
  5
AC
 10
42.180232356462852
 20
170.66342873246714
 30
0.0
  0
VERTEX
  8
001
 62
               3
  5
AD
 10
42.154627838004501
 20
170.43411931549818
 30
0.0
  0
VERTEX
  8
001
 62
               3
  5
AE
 10
42.133502592608899
 20
170.1899559102859
 30
0.0
  0
VERTEX
  8
001
 62
               3
  5
AF
 10
42.118887812041692
 20
169.94535328510881
 30
0.0
  0
VERTEX
  8
001
 62
               3
  5
B0
 10
42.110124423192595
 20
169.67344872305182
 30
0.0
  0
VERTEX
  8
001
 62
               3
  5
B1
 10
42.105726370217781
 20
169.40137881045774
 30
0.0
  0
SEQEND
  8
001
  5
B2
  0
POLYLINE
  8
001
 62
               3
  5
B3
 66
               1
 10
0.0
 20
0.0
 30
0.0
  0
VERTEX
  8
001
 62
               3
  5
B4
 10
42.105726370217894
 20
165.40137881045774
 30
0.0
  0
VERTEX
  8
001
 62
               3
  5
B5
 10
42.109383032162427
 20
165.15615448901633
 30
0.0
  0
VERTEX
  8
001
 62
               3
  5
B6
 10
42.116464255310632
 20
164.91104247291932
 30
0.0
  0
VERTEX
  8
001
 62
               3
  5
B7
 10
42.129318734458685
 20
164.67265152368813
 30
0.0
  0
VERTEX
  8
001
 62
               3
  5
B8
 10
42.14828751173917
 20
164.43464593302451
 30
0.0
  0
VERTEX
  8
001
 62
               3
  5
B9
 10
42.171689686448275
 20
164.21008515920303
 30
0.0
  0
VERTEX
  8
001
 62
               3
  5
BA
 10
42.200977776701791
 20
163.98620735608458
 30
0.0
  0
VERTEX
  8
001
 62
               3
  5
BB
 10
42.233873076913476
 20
163.78101782024694
 30
0.0
  0
VERTEX
  8
001
 62
               3
  5
BC
 10
42.273547535843818
 20
163.57709456303965
 30
0.0
  0
VERTEX
  8
001
 62
               3
  5
BD
 10
42.316097617750707
 20
163.39496886496562
 30
0.0
  0
VERTEX
  8
001
 62
               3
  5
BE
 10
42.366316994977581
 20
163.21461279462252
 30
0.0
  0
VERTEX
  8
001
 62
               3
  5
BF
 10
42.416954949350263
 20
163.06128804849078
 30
0.0
  0
VERTEX
  8
001
 62
               3
  5
C0
 10
42.476745301078893
 20
162.9118571097919
 30
0.0
  0
VERTEX
  8
001
 62
               3
  5
C1
 10
42.536906018768072
 20
162.7889308083613
 30
0.0
  0
VERTEX
  8
001
 62
               3
  5
C2
 10
42.60731050763809
 20
162.67001735215257
 30
0.0
  0
VERTEX
  8
001
 62
               3
  5
C3
 10
42.673112101501196
 20
162.57931742169481
 30
0.0
  0
VERTEX
  8
001
 62
               3
  5
C4
 10
42.751937287388216
 20
162.50356532394105
 30
0.0
  0
VERTEX
  8
001
 62
               3
  5
C5
 10
42.871845641390628
 20
162.44181862753373
 30
0.0
  0
VERTEX
  8
001
 62
               3
  5
C6
 10
43.005882537584739
 20
162.40137881045774
 30
0.0
  0
SEQEND
  8
001
  5
C7
  0
POLYLINE
  8
001
 62
               3
  5
C8
 66
               1
 10
0.0
 20
0.0
 30
0.0
  0
VERTEX
  8
001
 62
               3
  5
C9
 10
132.99026851023189
 20
169.40137881045774
 30
0.0
  0
VERTEX
  8
001
 62
               3
  5
CA
 10
132.98661184828731
 20
169.64660313189916
 30
0.0
  0
VERTEX
  8
001
 62
               3
  5
CB
 10
132.97953062513909
 20
169.89171514799617
 30
0.0
  0
VERTEX
  8
001
 62
               3
  5
CC
 10
132.96667614599107
 20
170.13010609722735
 30
0.0
  0
VERTEX
  8
001
 62
               3
  5
CD
 10
132.94770736871061
 20
170.36811168789097
 30
0.0
  0
VERTEX
  8
001
 62
               3
  5
CE
 10
132.92430519400151
 20
170.59267246171245
 30
0.0
  0
VERTEX
  8
001
 62
               3
  5
CF
 10
132.89501710374799
 20
170.81655026483091
 30
0.0
  0
VERTEX
  8
001
 62
               3
  5
D0
 10
132.8621218035363
 20
171.02173980066851
 30
0.0
  0
VERTEX
  8
001
 62
               3
  5
D1
 10
132.82244734460596
 20
171.22566305787583
 30
0.0
  0
VERTEX
  8
001
 62
               3
  5
D2
 10
132.77989726269908
 20
171.40778875594987
 30
0.0
  0
VERTEX
  8
001
 62
               3
  5
D3
 10
132.7296778854722
 20
171.58814482629296
 30
0.0
  0
VERTEX
  8
001
 62
               3
  5
D4
 10
132.67903993109951
 20
171.74146957242471
 30
0.0
  0
VERTEX
  8
001
 62
               3
  5
D5
 10
132.61924957937089
 20
171.89090051112359
 30
0.0
  0
VERTEX
  8
001
 62
               3
  5
D6
 10
132.55908886168172
 20
172.01382681255419
 30
0.0
  0
VERTEX
  8
001
 62
               3
  5
D7
 10
132.48868437281169
 20
172.13274026876292
 30
0.0
  0
VERTEX
  8
001
 62
               3
  5
D8
 10
132.42288277894858
 20
172.22344019922068
 30
0.0
  0
VERTEX
  8
001
 62
               3
  5
D9
 10
132.34405759306156
 20
172.29919229697444
 30
0.0
  0
VERTEX
  8
001
 62
               3
  5
DA
 10
132.22414923905913
 20
172.36093899338175
 30
0.0
  0
VERTEX
  8
001
 62
               3
  5
DB
 10
132.09011234286498
 20
172.40137881045774
 30
0.0
  0
SEQEND
  8
001
  5
DC
  0
POLYLINE
  8
001
 62
               3
  5
DD
 66
               1
 10
0.0
 20
0.0
 30
0.0
  0
VERTEX
  8
001
 62
               3
  5
DE
 10
132.09011234286504
 20
162.40137881045774
 30
0.0
  0
VERTEX
  8
001
 62
               3
  5
DF
 10
132.1782014121608
 20
162.41847550442694
 30
0.0
  0
VERTEX
  8
001
 62
               3
  5
E0
 10
132.26121337423592
 20
162.44675948962069
 30
0.0
  0
VERTEX
  8
001
 62
               3
  5
E1
 10
132.34772994921386
 20
162.50486257276535
 30
0.0
  0
VERTEX
  8
001
 62
               3
  5
E2
 10
132.42189696254133
 20
162.58149255560264
 30
0.0
  0
VERTEX
  8
001
 62
               3
  5
E3
 10
132.50155938327899
 20
162.68979125992868
 30
0.0
  0
VERTEX
  8
001
 62
               3
  5
E4
 10
132.56820430491115
 20
162.80525757178785
 30
0.0
  0
VERTEX
  8
001
 62
               3
  5
E5
 10
132.63808459960657
 20
162.95598634552186
 30
0.0
  0
VERTEX
  8
001
 62
               3
  5
E6
 10
132.69665431673036
 20
163.11191947043636
 30
0.0
  0
VERTEX
  8
001
 62
               3
  5
E7
 10
132.75337996514793
 20
163.29530751201156
 30
0.0
  0
VERTEX
  8
001
 62
               3
  5
E8
 10
132.80087228122682
 20
163.48115980471064
 30
0.0
  0
VERTEX
  8
001
 62
               3
  5
E9
 10
132.84627694855047
 20
163.69521346159036
 30
0.0
  0
VERTEX
  8
001
 62
               3
  5
EA
 10
132.88371359843615
 20
163.91083875436362
 30
0.0
  0
VERTEX
  8
001
 62
               3
  5
EB
 10
132.91576252398687
 20
164.13932888844835
 30
0.0
  0
VERTEX
  8
001
 62
               3
  5
EC
 10
132.94136704244522
 20
164.36863830541731
 30
0.0
  0
VERTEX
  8
001
 62
               3
  5
ED
 10
132.96249228784083
 20
164.61280171062958
 30
0.0
  0
VERTEX
  8
001
 62
               3
  5
EE
 10
132.97710706840803
 20
164.85740433580665
 30
0.0
  0
VERTEX
  8
001
 62
               3
  5
EF
 10
132.98587045725714
 20
165.12930889786367
 30
0.0
  0
VERTEX
  8
001
 62
               3
  5
F0
 10
132.99026851023194
 20
165.40137881045774
 30
0.0
  0
SEQEND
  8
001
  5
F1
  0
LINE
  8
001
 62
               3
  5
F2
 10
192.74849995596026
 20
208.40137881045774
 30
0.0
 11
192.74849995596026
 21
202.08697093780208
 31
0.0
  0
LINE
  8
001
 62
               3
  5
F3
 10
367.54799744022523
 20
132.40137881045763
 30
0.0
 11
367.54799744022523
 21
202.40137881045774
 31
0.0
  0
LINE
  8
001
 62
               3
  5
F4
 10
277.54799744022523
 20
203.40137881045774
 30
0.0
 11
280.54799744022523
 21
203.40137881045774
 31
0.0
  0
LINE
  8
001
 62
               3
  5
F5
 10
365.54799744022523
 20
204.40137881045774
 30
0.0
 11
367.54799744022523
 21
202.40137881045774
 31
0.0
  0
LINE
  8
001
 62
               3
  5
F6
 10
277.54799744022523
 20
131.40137881045763
 30
0.0
 11
280.54799744022523
 21
131.40137881045763
 31
0.0
  0
LINE
  8
001
 62
               3
  5
F7
 10
367.54799744022523
 20
132.40137881045763
 30
0.0
 11
365.54799744022523
 21
130.40137881045763
 31
0.0
  0
LINE
  8
001
 62
               3
  5
F8
 10
187.547997440225
 20
222.40137881045774
 30
0.0
 11
277.54799744022534
 21
222.40137881045774
 31
0.0
  0
LINE
  8
001
 62
               3
  5
F9
 10
187.547997440225
 20
112.40137881045774
 30
0.0
 11
277.54799744022534
 21
112.40137881045774
 31
0.0
  0
LINE
  8
001
 62
               3
  5
FA
 10
185.547997440225
 20
220.40137881045786
 30
0.0
 11
187.54799744022489
 21
222.40137881045774
 31
0.0
  0
LINE
  8
001
 62
               3
  5
FB
 10
187.547997440225
 20
112.40137881045774
 30
0.0
 11
185.547997440225
 21
114.40137881045774
 31
0.0
  0
LINE
  8
001
  6
CENTER
  5
FC
 10
232.547997440225
 20
107.40137881045774
 30
0.0
 11
232.547997440225
 21
227.40137881045774
 31
0.0
  0
LINE
  8
001
 62
               3
  5
FD
 10
219.547997440225
 20
162.40137881045774
 30
0.0
 11
185.547997440225
 21
162.40137881045774
 31
0.0
  0
LINE
  8
001
 62
               3
  5
FE
 10
185.547997440225
 20
172.40137881045774
 30
0.0
 11
219.54799744022489
 21
172.40137881045774
 31
0.0
  0
LINE
  8
001
 62
               3
  5
FF
 10
222.547997440225
 20
165.40137881045774
 30
0.0
 11
222.547997440225
 21
169.40137881045774
 31
0.0
  0
ARC
  8
001
 62
               3
  5
100
 10
219.547997440225
 20
169.40137881045774
 30
0.0
 40
3.0
 50
0.0
 51
90.0
  0
ARC
  8
001
 62
               3
  5
101
 10
219.547997440225
 20
165.40137881045774
 30
0.0
 40
3.0
 50
270.0
 51
0.0
  0
LINE
  8
001
 62
               3
  5
102
 10
365.54799744022523
 20
204.40137881045774
 30
0.0
 11
280.54799744022523
 21
204.40137881045774
 31
0.0
  0
LINE
  8
001
 62
               3
  5
103
 10
365.54799744022523
 20
130.40137881045763
 30
0.0
 11
280.54799744022523
 21
130.40137881045763
 31
0.0
  0
CIRCLE
  8
001
 62
               3
  5
104
 10
187.547997440225
 20
197.40137881045774
 30
0.0
 40
7.0
  0
LINE
  8
001
 62
               3
  5
105
 10
185.547997440225
 20
114.40137881045774
 30
0.0
 11
185.547997440225
 21
162.40137881045774
 31
0.0
  0
LINE
  8
001
 62
               3
  5
106
 10
70.54799744022489
 20
208.40137881045797
 30
0.0
 11
85.54799744022489
 21
208.40137881045797
 31
0.0
  0
POLYLINE
  8
001
 62
               3
  5
107
 66
               1
 10
0.0
 20
0.0
 30
0.0
  0
VERTEX
  8
001
 62
               3
  5
108
 10
67.54799744022489
 20
204.29230941680089
 30
0.0
  0
VERTEX
  8
001
 62
               3
  5
109
 10
66.29799744022489
 20
203.88743362526736
 30
0.0
  0
VERTEX
  8
001
 62
               3
  5
10A
 10
65.04799744022489
 20
203.48255783373381
 30
0.0
  0
VERTEX
  8
001
 62
               3
  5
10B
 10
64.568086275823788
 20
203.32484109911186
 30
0.0
  0
VERTEX
  8
001
 62
               3
  5
10C
 10
64.092650925919543
 20
203.15493485616079
 30
0.0
  0
VERTEX
  8
001
 62
               3
  5
10D
 10
63.627732264332167
 20
202.96385265623255
 30
0.0
  0
VERTEX
  8
001
 62
               3
  5
10E
 10
63.17259691958958
 20
202.74992724536528
 30
0.0
  0
VERTEX
  8
001
 62
               3
  5
10F
 10
62.655097905052891
 20
202.47200296185011
 30
0.0
  0
VERTEX
  8
001
 62
               3
  5
110
 10
62.156579813563951
 20
202.16145944598802
 30
0.0
  0
VERTEX
  8
001
 62
               3
  5
111
 10
61.677863788113953
 20
201.81249990834311
 30
0.0
  0
VERTEX
  8
001
 62
               3
  5
112
 10
61.228703929216692
 20
201.42640335662739
 30
0.0
  0
VERTEX
  8
001
 62
               3
  5
113
 10
60.892702608693973
 20
201.08846876226787
 30
0.0
  0
VERTEX
  8
001
 62
               3
  5
114
 10
60.582614076036919
 20
200.72658899903999
 30
0.0
  0
VERTEX
  8
001
 62
               3
  5
115
 10
60.295248074819682
 20
200.33200813664902
 30
0.0
  0
VERTEX
  8
001
 62
               3
  5
116
 10
60.042289449791554
 20
199.91470210068448
 30
0.0
  0
VERTEX
  8
001
 62
               3
  5
117
 10
59.873073357386289
 20
199.57858120661047
 30
0.0
  0
VERTEX
  8
001
 62
               3
  5
118
 10
59.727491285018857
 20
199.23155588320392
 30
0.0
  0
VERTEX
  8
001
 62
               3
  5
119
 10
59.604203084499773
 20
198.86773276201779
 30
0.0
  0
VERTEX
  8
001
 62
               3
  5
11A
 10
59.508038350597815
 20
198.4958747957601
 30
0.0
  0
VERTEX
  8
001
 62
               3
  5
11B
 10
59.439141837239831
 20
198.10899419442168
 30
0.0
  0
VERTEX
  8
001
 62
               3
  5
11C
 10
59.399995413763179
 20
197.7178843285815
 30
0.0
  0
VERTEX
  8
001
 62
               3
  5
11D
 10
59.39254557666758
 20
197.55970389106642
 30
0.0
  0
VERTEX
  8
001
 62
               3
  5
11E
 10
59.389908627440796
 20
197.40137881045771
 30
0.0
  0
SEQEND
  8
001
  5
11F
  0
POLYLINE
  8
001
 62
               3
  5
120
 66
               1
 10
0.0
 20
0.0
 30
0.0
  0
VERTEX
  8
001
 62
               3
  5
121
 10
67.54799744022489
 20
190.51044820411457
 30
0.0
  0
VERTEX
  8
001
 62
               3
  5
122
 10
66.29799744022489
 20
190.91532399564812
 30
0.0
  0
VERTEX
  8
001
 62
               3
  5
123
 10
65.04799744022489
 20
191.32019978718165
 30
0.0
  0
VERTEX
  8
001
 62
               3
  5
124
 10
64.568086275823788
 20
191.47791652180359
 30
0.0
  0
VERTEX
  8
001
 62
               3
  5
125
 10
64.092650925919543
 20
191.64782276475466
 30
0.0
  0
VERTEX
  8
001
 62
               3
  5
126
 10
63.627732264332167
 20
191.83890496468291
 30
0.0
  0
VERTEX
  8
001
 62
               3
  5
127
 10
63.17259691958958
 20
192.05283037555017
 30
0.0
  0
VERTEX
  8
001
 62
               3
  5
128
 10
62.655097905052891
 20
192.33075465906535
 30
0.0
  0
VERTEX
  8
001
 62
               3
  5
129
 10
62.156579813563951
 20
192.64129817492744
 30
0.0
  0
VERTEX
  8
001
 62
               3
  5
12A
 10
61.677863788113953
 20
192.99025771257234
 30
0.0
  0
VERTEX
  8
001
 62
               3
  5
12B
 10
61.228703929216692
 20
193.37635426428807
 30
0.0
  0
VERTEX
  8
001
 62
               3
  5
12C
 10
60.892702608693973
 20
193.71428885864759
 30
0.0
  0
VERTEX
  8
001
 62
               3
  5
12D
 10
60.582614076036919
 20
194.07616862187547
 30
0.0
  0
VERTEX
  8
001
 62
               3
  5
12E
 10
60.295248074819682
 20
194.47074948426643
 30
0.0
  0
VERTEX
  8
001
 62
               3
  5
12F
 10
60.042289449791554
 20
194.88805552023098
 30
0.0
  0
VERTEX
  8
001
 62
               3
  5
130
 10
59.873073357386289
 20
195.22417641430499
 30
0.0
  0
VERTEX
  8
001
 62
               3
  5
131
 10
59.727491285018857
 20
195.57120173771153
 30
0.0
  0
VERTEX
  8
001
 62
               3
  5
132
 10
59.604203084499773
 20
195.93502485889766
 30
0.0
  0
VERTEX
  8
001
 62
               3
  5
133
 10
59.508038350597815
 20
196.30688282515536
 30
0.0
  0
VERTEX
  8
001
 62
               3
  5
134
 10
59.439141837239831
 20
196.69376342649377
 30
0.0
  0
VERTEX
  8
001
 62
               3
  5
135
 10
59.399995413763179
 20
197.08487329233395
 30
0.0
  0
VERTEX
  8
001
 62
               3
  5
136
 10
59.39254557666758
 20
197.24305372984904
 30
0.0
  0
VERTEX
  8
001
 62
               3
  5
137
 10
59.389908627440796
 20
197.40137881045774
 30
0.0
  0
SEQEND
  8
001
  5
138
  0
LINE
  8
001
 62
               3
  5
139
 10
89.54799744022489
 20
208.40137881045797
 30
0.0
 11
109.54799744022512
 21
208.40137881045797
 31
0.0
  0
LINE
  8
001
 62
               3
  5
13A
 10
109.54799744022512
 20
174.40137881045808
 30
0.0
 11
89.54799744022489
 21
174.40137881045808
 31
0.0
  0
ARC
  8
001
 62
               3
  5
13B
 10
187.547997440225
 20
197.40137881045774
 30
0.0
 40
10.999999999999886
 50
90.0
 51
223.3417582272227
  0
LINE
  8
001
 62
               3
  5
13C
 10
70.54799744022489
 20
174.40137881045808
 30
0.0
 11
85.54799744022489
 21
174.40137881045808
 31
0.0
  0
ARC
  8
001
 62
               3
  5
13D
 10
187.547997440225
 20
182.40137881045774
 30
0.0
 40
7.9999999999998863
 50
180.0
 51
270.0
  0
ARC
  8
001
 62
               3
  5
13E
 10
182.547997440225
 20
210.47807564107967
 30
0.0
 40
3.0
 50
290.92483242763802
 51
0.0
  0
LINE
  8
001
 62
               3
  5
13F
 10
179.547997440225
 20
182.40137881045774
 30
0.0
 11
179.547997440225
 21
189.85154437518702
 31
0.0
  0
ARC
  8
001
 62
               3
  5
140
 10
182.547997440225
 20
172.60341983932511
 30
0.0
 40
3.0
 50
0.0
 51
62.964308210588051
  0
LINE
  8
001
 62
               3
  5
141
 10
185.547997440225
 20
220.40137881045786
 30
0.0
 11
185.547997440225
 21
210.47807564107967
 31
0.0
  0
LINE
  8
001
 62
               3
  5
142
 10
185.547997440225
 20
172.40137881045774
 30
0.0
 11
185.547997440225
 21
172.60341983932511
 31
0.0
  0
LINE
  8
001
 62
               3
  5
143
 10
192.74849995596026
 20
174.40137881045774
 30
0.0
 11
187.547997440225
 21
174.40137881045774
 31
0.0
  0
LINE
  8
001
 62
               3
  5
144
 10
192.74849995596026
 20
208.40137881045774
 30
0.0
 11
187.547997440225
 21
208.40137881045774
 31
0.0
  0
LINE
  8
001
 62
               3
  5
145
 10
112.54799744022512
 20
177.40137881045808
 30
0.0
 11
112.54799744022512
 21
205.40137881045797
 31
0.0
  0
ARC
  8
001
 62
               3
  5
146
 10
70.54799744022489
 20
205.40137881045797
 30
0.0
 40
2.9999999999999964
 50
90.0
 51
180.0
  0
ARC
  8
001
 62
               3
  5
147
 10
109.54799744022512
 20
205.40137881045797
 30
0.0
 40
2.9999999999999964
 50
0.0
 51
90.0
  0
LINE
  8
001
 62
               3
  5
148
 10
67.54799744022489
 20
205.40137881045797
 30
0.0
 11
67.54799744022489
 21
177.40137881045808
 31
0.0
  0
ARC
  8
001
 62
               3
  5
149
 10
70.54799744022489
 20
177.40137881045808
 30
0.0
 40
3.0
 50
180.0
 51
270.0
  0
ARC
  8
001
 62
               3
  5
14A
 10
109.54799744022512
 20
177.40137881045808
 30
0.0
 40
3.0
 50
270.0
 51
0.0
  0
LINE
  8
001
 62
               3
  5
14B
 10
176.547997440225
 20
315.40137881045769
 30
0.0
 11
195.1395133977652
 21
315.40137881045769
 31
0.0
  0
LINE
  8
001
 62
               3
  5
14C
 10
176.547997440225
 20
319.40137881045769
 30
0.0
 11
195.1395133977656
 21
319.40137881045769
 31
0.0
  0
LINE
  8
001
 62
               3
  5
14D
 10
195.13951339776554
 20
319.40137881045769
 30
0.0
 11
195.63204875263568
 21
319.89391416532783
 31
0.0
  0
LINE
  8
001
 62
               3
  5
14E
 10
195.1395133977652
 20
315.40137881045769
 30
0.0
 11
195.6320487526358
 21
314.90884345558709
 31
0.0
  0
LINE
  8
001
 62
               3
  5
14F
 10
365.54799744022523
 20
354.40137881045769
 30
0.0
 11
280.54799744022523
 21
354.40137881045769
 31
0.0
  0
LINE
  8
001
  6
CENTER
  5
150
 10
174.9028945861736
 20
317.40137881045769
 30
0.0
 11
370.17373692873787
 21
317.40137881045769
 31
0.0
  0
LINE
  8
001
  6
CENTER
  5
151
 10
226.26415815051155
 20
167.40137881045774
 30
0.0
 11
370.87200410388675
 21
167.40137881045774
 31
0.0
  0
LINE
  8
001
 62
               3
  5
152
 10
232.547997440225
 20
167.40137881045774
 30
0.0
 11
268.3864945956517
 21
203.23987596588444
 31
0.0
  0
LINE
  8
001
 62
               3
  5
153
 10
268.3864945956517
 20
131.56288165503094
 30
0.0
 11
232.54799744022492
 21
167.40137881045769
 31
0.0
  0
LINE
  8
001
 62
               3
  5
154
 10
277.54799744022523
 20
222.40137881045774
 30
0.0
 11
277.54799744022523
 21
112.40137881045774
 31
0.0
  0
LINE
  8
001
 62
               3
  5
155
 10
280.54799744022523
 20
130.40137881045763
 30
0.0
 11
280.54799744022523
 21
204.40137881045774
 31
0.0
  0
LINE
  8
001
 62
               3
  5
156
 10
184.57753030524441
 20
195.68637881045774
 30
0.0
 11
184.57753030524441
 21
199.11637881045775
 31
0.0
  0
LINE
  8
001
 62
               3
  5
157
 10
190.5184645752056
 20
199.11637881045772
 30
0.0
 11
190.5184645752056
 21
195.68637881045771
 31
0.0
  0
LINE
  8
001
 62
               3
  5
158
 10
190.5184645752056
 20
195.68637881045774
 30
0.0
 11
187.54799744022498
 21
193.97137881045774
 31
0.0
  0
LINE
  8
001
 62
               3
  5
159
 10
187.547997440225
 20
200.83137881045775
 30
0.0
 11
184.57753030524438
 21
199.11637881045775
 31
0.0
  0
LINE
  8
001
 62
               3
  5
15A
 10
187.547997440225
 20
200.83137881045775
 30
0.0
 11
190.51846457520563
 21
199.11637881045775
 31
0.0
  0
LINE
  8
001
 62
               3
  5
15B
 10
187.547997440225
 20
193.97137881045774
 30
0.0
 11
184.57753030524438
 21
195.68637881045774
 31
0.0
  0
CIRCLE
  8
001
 62
               3
  5
15C
 10
187.547997440225
 20
197.40137881045774
 30
0.0
 40
6.5
  0
CIRCLE
  8
001
 62
               3
  5
15D
 10
187.547997440225
 20
197.40137881045774
 30
0.0
 40
3.4299999999999988
  0
LINE
  8
001
 62
               3
  5
15E
 10
184.57753030524441
 20
180.68637881045774
 30
0.0
 11
184.57753030524441
 21
184.11637881045775
 31
0.0
  0
LINE
  8
001
 62
               3
  5
15F
 10
190.5184645752056
 20
184.11637881045775
 30
0.0
 11
190.5184645752056
 21
180.68637881045774
 31
0.0
  0
LINE
  8
001
 62
               3
  5
160
 10
190.5184645752056
 20
180.68637881045774
 30
0.0
 11
187.54799744022498
 21
178.97137881045774
 31
0.0
  0
LINE
  8
001
 62
               3
  5
161
 10
187.547997440225
 20
185.83137881045775
 30
0.0
 11
184.57753030524438
 21
184.11637881045775
 31
0.0
  0
LINE
  8
001
 62
               3
  5
162
 10
187.547997440225
 20
185.83137881045775
 30
0.0
 11
190.51846457520563
 21
184.11637881045775
 31
0.0
  0
LINE
  8
001
 62
               3
  5
163
 10
187.547997440225
 20
178.97137881045774
 30
0.0
 11
184.57753030524438
 21
180.68637881045774
 31
0.0
  0
CIRCLE
  8
001
 62
               3
  5
164
 10
187.547997440225
 20
182.40137881045774
 30
0.0
 40
6.5
  0
CIRCLE
  8
001
 62
               3
  5
165
 10
187.547997440225
 20
182.40137881045774
 30
0.0
 40
3.4299999999999988
  0
LINE
  8
001
 62
               3
  5
166
 10
116.34799744022484
 20
175.90137881045774
 30
0.0
 11
122.74799744022476
 21
175.90137881045786
 31
0.0
  0
LINE
  8
001
 62
               3
  5
167
 10
116.34799744022496
 20
188.90137881045774
 30
0.0
 11
122.74799744022488
 21
188.90137881045763
 31
0.0
  0
LINE
  8
001
 62
               3
  5
168
 10
123.54799744022489
 20
188.10137881045779
 30
0.0
 11
123.54799744022489
 21
176.7013788104577
 31
0.0
  0
LINE
  8
001
 62
               3
  5
169
 10
115.54799744022489
 20
188.10137881045767
 30
0.0
 11
115.54799744022489
 21
176.70137881045781
 31
0.0
  0
LINE
  8
001
 62
               3
  5
16A
 10
85.54799744022489
 20
179.65137881045763
 30
0.0
 11
85.54799744022489
 21
185.15137881045786
 31
0.0
  0
LINE
  8
001
 62
               3
  5
16B
 10
86.79799744022489
 20
186.40137881045774
 30
0.0
 11
85.54799744022489
 21
185.15137881045786
 31
0.0
  0
LINE
  8
001
 62
               3
  5
16C
 10
85.54799744022489
 20
179.65137881045763
 30
0.0
 11
86.79799744022489
 21
178.40137881045774
 31
0.0
  0
LINE
  8
001
 62
               3
  5
16D
 10
86.79799744022489
 20
186.40137881045774
 30
0.0
 11
86.79799744022489
 21
178.40137881045774
 31
0.0
  0
ARC
  8
001
 62
               3
  5
16E
 10
122.74799744022482
 20
176.7013788104577
 30
0.0
 40
0.8
 50
270.0
 51
0.0
  0
ARC
  8
001
 62
               3
  5
16F
 10
122.74799744022482
 20
188.10137881045779
 30
0.0
 40
0.8
 50
0.0
 51
90.0
  0
ARC
  8
001
 62
               3
  5
170
 10
116.34799744022496
 20
188.10137881045767
 30
0.0
 40
0.8
 50
90.0
 51
180.0
  0
ARC
  8
001
 62
               3
  5
171
 10
116.34799744022484
 20
176.7013788104577
 30
0.0
 40
0.8
 50
180.0
 51
270.0
  0
LINE
  8
001
 62
               3
  5
172
 10
112.84799744022484
 20
190.90137881045774
 30
0.0
 11
119.24799744022476
 21
190.90137881045786
 31
0.0
  0
LINE
  8
001
 62
               3
  5
173
 10
112.84799744022496
 20
203.90137881045774
 30
0.0
 11
119.24799744022488
 21
203.90137881045763
 31
0.0
  0
LINE
  8
001
 62
               3
  5
174
 10
120.04799744022489
 20
203.10137881045779
 30
0.0
 11
120.04799744022489
 21
191.7013788104577
 31
0.0
  0
ARC
  8
001
 62
               3
  5
175
 10
119.24799744022482
 20
191.7013788104577
 30
0.0
 40
0.8
 50
270.0
 51
0.0
  0
ARC
  8
001
 62
               3
  5
176
 10
119.24799744022482
 20
203.10137881045779
 30
0.0
 40
0.8
 50
0.0
 51
90.0
  0
LINE
  8
001
 62
               3
  5
177
 10
181.047997440225
 20
292.10137881045762
 30
0.0
 11
181.04799744022512
 21
285.7013788104577
 31
0.0
  0
LINE
  8
001
 62
               3
  5
178
 10
193.24799744022505
 20
284.90137881045757
 30
0.0
 11
181.84799744022496
 21
284.90137881045757
 31
0.0
  0
ARC
  8
001
 62
               3
  5
179
 10
181.84799744022496
 20
285.70137881045764
 30
0.0
 40
0.8
 50
180.0
 51
270.0
  0
ARC
  8
001
 62
               3
  5
17A
 10
193.24799744022505
 20
285.70137881045764
 30
0.0
 40
0.8
 50
270.0
 51
0.0
  0
LINE
  8
001
 62
               3
  5
17B
 10
192.74849995596026
 20
174.40137881045774
 30
0.0
 11
192.74849995596026
 21
178.50204892138305
 31
0.0
  0
LINE
  8
001
 62
               3
  5
17C
 10
192.74849995596026
 20
186.30070869953244
 30
0.0
 11
192.74849995596026
 21
192.71578668311341
 31
0.0
  0
LINE
  8
001
 62
               3
  5
17D
 10
191.547997440225
 20
319.40137881045769
 30
0.0
 11
191.547997440225
 21
315.40137881045769
 31
0.0
  0
LINE
  8
001
 62
               3
  5
17E
 10
190.87149744022497
 20
319.40137881045769
 30
0.0
 11
190.87149744022497
 21
315.40137881045769
 31
0.0
  0
LINE
  8
001
 62
               3
  5
17F
 10
184.22449744022504
 20
319.40137881045769
 30
0.0
 11
184.22449744022504
 21
315.40137881045769
 31
0.0
  0
LINE
  8
001
 62
               3
  5
180
 10
183.547997440225
 20
319.40137881045769
 30
0.0
 11
183.547997440225
 21
315.40137881045769
 31
0.0
  0
LINE
  8
001
 62
               3
  5
181
 10
194.047997440225
 20
290.43636308812302
 30
0.0
 11
194.04799744022492
 21
285.70137881045758
 31
0.0
  0
ARC
  8
001
 62
               3
  5
182
 10
181.84799744022496
 20
292.10137881045762
 30
0.0
 40
0.8
 50
157.97568716296033
 51
180.0
  0
ARC
  8
001
 62
               3
  5
183
 10
232.547997440225
 20
317.40137881045769
 30
0.0
 40
47.0
 50
16.774744264093979
 51
177.56114530905012
  0
ARC
  8
001
 62
               3
  5
184
 10
232.547997440225
 20
317.40137881045769
 30
0.0
 40
47.0
 50
182.43885469094988
 51
343.22525573590605
  0
LINE
  8
001
 62
               3
  5
185
 10
86.121497440224857
 20
185.72487881045771
 30
0.0
 11
89.54799744022489
 21
185.72487881045771
 31
0.0
  0
LINE
  8
001
 62
               3
  5
186
 10
112.54799744022512
 20
185.72487881045771
 30
0.0
 11
115.54799744022489
 21
185.72487881045771
 31
0.0
  0
LINE
  8
001
 62
               3
  5
187
 10
86.79799744022489
 20
186.40137881045774
 30
0.0
 11
89.54799744022489
 21
186.40137881045774
 31
0.0
  0
LINE
  8
001
 62
               3
  5
188
 10
112.54799744022512
 20
186.40137881045774
 30
0.0
 11
115.54799744022483
 21
186.40137881045774
 31
0.0
  0
LINE
  8
001
 62
               3
  5
189
 10
86.121497440224857
 20
179.07787881045778
 30
0.0
 11
89.54799744022489
 21
179.07787881045778
 31
0.0
  0
LINE
  8
001
 62
               3
  5
18A
 10
112.54799744022512
 20
179.07787881045778
 30
0.0
 11
115.54799744022489
 21
179.07787881045778
 31
0.0
  0
LINE
  8
001
 62
               3
  5
18B
 10
86.79799744022489
 20
178.40137881045774
 30
0.0
 11
89.54799744022489
 21
178.40137881045774
 31
0.0
  0
LINE
  8
001
 62
               3
  5
18C
 10
112.54799744022512
 20
178.40137881045774
 30
0.0
 11
115.54799744022483
 21
178.40137881045774
 31
0.0
  0
LINE
  8
001
 62
               3
  5
18D
 10
85.54799744022489
 20
193.40137881045774
 30
0.0
 11
89.54799744022489
 21
193.40137881045774
 31
0.0
  0
LINE
  8
001
 62
               3
  5
18E
 10
85.54799744022489
 20
194.07787881045778
 30
0.0
 11
89.54799744022489
 21
194.07787881045778
 31
0.0
  0
LINE
  8
001
 62
               3
  5
18F
 10
85.54799744022489
 20
200.72487881045771
 30
0.0
 11
89.54799744022489
 21
200.72487881045771
 31
0.0
  0
LINE
  8
001
 62
               3
  5
190
 10
85.54799744022489
 20
201.40137881045774
 30
0.0
 11
89.54799744022489
 21
201.40137881045774
 31
0.0
  0
ARC
  8
001
 62
               3
  5
191
 10
112.84799744022496
 20
203.10137881045767
 30
0.0
 40
0.8
 50
90.0
 51
112.02431283702981
  0
ARC
  8
001
 62
               3
  5
192
 10
112.84799744022484
 20
191.7013788104577
 30
0.0
 40
0.8
 50
247.97568716297886
 51
270.0
  0
TEXT
  8
001
  5
193
 10
40.650662022661209
 20
60.084977399882987
 30
0.0
 40
15.0
  1
2006.1.31
 41
0.6750000675000067
  0
TEXT
  8
001
  5
194
 10
40.650662022661209
 20
42.584977399882987
 30
0.0
 40
15.0
  1
FS-74SS
 41
0.5
  0
ENDSEC
  0
EOF
