  0
SECTION
  2
HEADER
  9
$EXTMIN
 10
            0.0000000000000000
 20
            0.0000000000000000
  9
$EXTMAX
 10
          420.0000000000000000
 20
          297.0000000000000000
  9
$LIMMIN
 10
            0.0000000000000000
 20
            0.0000000000000000
  9
$LIMMAX
 10
          420.0000000000000000
 20
          297.0000000000000000
  0
ENDSEC
  0
SECTION
  2
TABLES
  0
TABLE
  2
LTYPE
 70
     4
  0
LTYPE
  2
CONTINUOUS
 70
    64
  3
CONTINUOUS
 72
    65
 73
     0
 40
            0.0000000000000000
  0
LTYPE
  2
DASHED
 70
    64
  3
DASHED
 72
    65
 73
     2
 40
            3.0000000000000000
 49
            2.0000000000000000
 49
           -1.0000000000000000
  0
LTYPE
  2
CENTER
 70
    64
  3
CENTER
 72
    65
 73
     4
 40
           12.0000000000000000
 49
            9.0000000000000000
 49
           -1.0000000000000000
 49
            1.0000000000000000
 49
           -1.0000000000000000
  0
LTYPE
  2
PHANTOM
 70
    64
  3
PHANTOM
 72
    65
 73
     6
 40
           20.0000000000000000
 49
           15.0000000000000000
 49
           -1.0000000000000000
 49
            1.0000000000000000
 49
           -1.0000000000000000
 49
            1.0000000000000000
 49
           -1.0000000000000000
  0
ENDTAB
  0
TABLE
  2
LAYER
 70
     1
  0
LAYER
  2
1
 70
    64
 62
     7
  6
CONTINUOUS
  0
ENDTAB
  0
TABLE
  2
STYLE
 70
     1
  0
STYLE
  2
STANDARD
 70
    64
 40
            0.0000000000000000
 41
            1.0000000000000000
 50
            0.0000000000000000
 71
     0
 42
            0.2500000000000000
  3
TXT
  4
BIGFONT
  0
ENDTAB
  0
ENDSEC
  0
SECTION
  2
BLOCKS
  0
ENDSEC
  0
SECTION
  2
ENTITIES
  0
LINE
  8
1
  6
CENTER
 62
     1
 10
           93.6999588012695312
 20
          224.7603607177734375
 11
          174.5547180175781250
 21
          224.7603607177734375
  0
LINE
  8
1
 62
     3
 10
          101.5112762451172159
 20
          264.7603607177734375
 11
          167.5112762451171875
 21
          264.7603607177734375
  0
LINE
  8
1
 62
     3
 10
          101.5112762451172159
 20
          184.7603607177734375
 11
          167.5112762451171875
 21
          184.7603607177734375
  0
LINE
  8
1
 62
     3
 10
           99.5112762451172159
 20
          186.7603607177734375
 11
           99.5112762451172159
 21
          262.7603607177734375
  0
LINE
  8
1
 62
     3
 10
          169.5112762451171875
 20
          186.7603607177734375
 11
          169.5112762451171875
 21
          262.7603607177734375
  0
LINE
  8
1
  6
CENTER
 62
     1
 10
           95.3547134399414062
 20
          102.3264007568359375
 11
          173.0603790283203125
 21
          102.3264007568359375
  0
LINE
  8
1
 62
     3
 10
          107.5112762451172443
 20
          137.3264007568359375
 11
          161.3502044677734375
 21
          137.3264007568359375
  0
LINE
  8
1
 62
     3
 10
           99.5112762451171875
 20
           42.3264007568359233
 11
          129.5112762451171875
 21
           42.3264007568359233
  0
LINE
  8
1
 62
     3
 10
          101.5112762451172159
 20
          130.3264007568359375
 11
          167.5112762451171875
 21
          130.3264007568359375
  0
LINE
  8
1
 62
     3
 10
           99.5112762451171875
 20
           42.3264007568359233
 11
           99.5112762451171875
 21
          101.3264007568359375
  0
LINE
  8
1
 62
     3
 10
          169.5112762451171875
 20
           42.3264007568359233
 11
          169.5112762451171875
 21
          101.3264007568359375
  0
LINE
  8
1
 62
     3
 10
          110.5112762451172159
 20
          206.3603607177734602
 11
          158.5112762451171875
 21
          206.3603607177734602
  0
LINE
  8
1
 62
     3
 10
           99.5112762451172159
 20
          247.7603607177734375
 11
          169.5112762451171875
 21
          247.7603607177734375
  0
LINE
  8
1
 62
     3
 10
          110.5112762451172159
 20
          243.1603607177734148
 11
          158.5112762451171875
 21
          243.1603607177734148
  0
LINE
  8
1
 62
     3
 10
          110.5112762451172159
 20
          206.3603607177734602
 11
          110.5112762451172159
 21
          243.1603607177734148
  0
LINE
  8
1
 62
     3
 10
          158.5112762451171875
 20
          206.3603607177734602
 11
          158.5112762451171875
 21
          243.1603607177734148
  0
LINE
  8
1
 62
     3
 10
          101.5112762451172159
 20
          253.7603607177734375
 11
          110.5112762451172159
 21
          253.7603607177734375
  0
LINE
  8
1
 62
     3
 10
          101.5112762451172159
 20
          195.7603607177734375
 11
          108.2612762451172159
 21
          195.7603607177734375
  0
LINE
  8
1
 62
     3
 10
           99.5112762451172443
 20
          201.7603607177734375
 11
          169.5112762451171875
 21
          201.7603607177734375
  0
LINE
  8
1
 62
     3
 10
          158.5112762451171875
 20
          195.7603607177734375
 11
          167.5112762451171875
 21
          195.7603607177734375
  0
LINE
  8
1
 62
     3
 10
          158.5112762451171875
 20
          253.7603607177734375
 11
          167.5112762451171875
 21
          253.7603607177734375
  0
LINE
  8
1
 62
     3
 10
           99.5112762451172443
 20
          201.7603607177734375
 11
          110.5112762451172159
 21
          206.3603607177734602
  0
LINE
  8
1
 62
     3
 10
           99.5112762451172159
 20
          247.7603607177734375
 11
          110.5112762451172159
 21
          243.1603607177734148
  0
LINE
  8
1
 62
     3
 10
          158.5112762451171875
 20
          243.1603607177734148
 11
          169.5112762451171875
 21
          247.7603607177734375
  0
LINE
  8
1
 62
     3
 10
          158.5112762451171875
 20
          206.3603607177734602
 11
          169.5112762451171875
 21
          201.7603607177734375
  0
LINE
  8
1
 62
     3
 10
          156.5112762451171875
 20
          184.7603607177734375
 11
          156.5112762451171875
 21
          193.7603607177734375
  0
LINE
  8
1
 62
     3
 10
          112.5112762451171875
 20
          184.7603607177734375
 11
          112.5112762451171875
 21
          193.7603607177734375
  0
LINE
  8
1
 62
     3
 10
          156.5112762451171875
 20
          255.7603607177734375
 11
          156.5112762451171875
 21
          264.7603607177734375
  0
LINE
  8
1
 62
     3
 10
          112.5112762451171875
 20
          255.7603607177734375
 11
          112.5112762451171875
 21
          264.7603607177734375
  0
LINE
  8
1
 62
     3
 10
          100.5112762451171875
 20
           56.3264007568359233
 11
          120.5112762451171875
 21
           56.3264007568359233
  0
LINE
  8
1
 62
     3
 10
           99.5112762451171875
 20
          101.3264007568359375
 11
          169.5112762451171875
 21
          101.3264007568359375
  0
LINE
  8
1
 62
     3
 10
           99.5112762451171875
 20
          103.3264007568359375
 11
          169.5112762451171875
 21
          103.3264007568359375
  0
LINE
  8
1
 62
     3
 10
           99.5112762451171875
 20
          103.3264007568359375
 11
           99.5112762451172159
 21
          132.7075986033189565
  0
LINE
  8
1
 62
     3
 10
          169.5112762451171875
 20
          103.3264007568359375
 11
          169.5112762451171875
 21
          132.5973052978515625
  0
LINE
  8
1
 62
     3
 10
           99.5112762451172159
 20
          132.7075986033189565
 11
          107.6904958350702657
 21
          137.4298732353393575
  0
LINE
  8
1
 62
     3
 10
          161.4194919557474464
 20
          137.3793924410109355
 11
          169.5112762451171875
 21
          132.7075986033188428
  0
LINE
  8
1
 62
     3
 10
          112.5112762451171875
 20
           84.3264007568359375
 11
          112.5112762451171875
 21
          101.3264007568359375
  0
LINE
  8
1
 62
     3
 10
          156.5112762451171875
 20
           84.3264007568359375
 11
          156.5112762451171875
 21
          101.3264007568359375
  0
LINE
  8
1
 62
     3
 10
          146.5112762451171875
 20
           58.3264007568359233
 11
          146.5112762451171875
 21
          101.3264007568359375
  0
LINE
  8
1
 62
     3
 10
          122.5112762451171875
 20
           58.3264007568359233
 11
          122.5112762451171875
 21
          101.3264007568359375
  0
LINE
  8
1
 62
     3
 10
          108.2612762451172159
 20
          195.7603607177734375
 11
          110.5112762451172159
 21
          195.7603607177734375
  0
LINE
  8
1
 62
     3
 10
          256.9452362060546875
 20
          130.3264007568359375
 11
          272.5037843217273235
 21
          130.3264007568359375
  0
LINE
  8
1
 62
     3
 10
          277.6999367444339555
 20
          137.3264007568359375
 11
          312.1905356676754195
 21
          137.3264007568359375
  0
LINE
  8
1
 62
     3
 10
          254.9452362060546875
 20
           42.3264007568359375
 11
          289.9452362060546875
 21
           42.3264007568359375
  0
LINE
  8
1
  6
CENTER
 62
     1
 10
          294.9452362060546875
 20
           42.3264007568359375
 11
          294.9452362060546875
 21
          141.2151031494140625
  0
LINE
  8
1
 62
     3
 10
          278.9452362060546875
 20
           58.3264007568359375
 11
          278.9452362060546875
 21
           69.1842651331049865
  0
LINE
  8
1
 62
     3
 10
          310.9452362060546875
 20
           58.3264007568359375
 11
          310.9452362060546875
 21
           69.1842651331049865
  0
LINE
  8
1
  6
CENTER
 62
     1
 10
          250.7188262939453125
 20
          102.3264007568359375
 11
          338.6904754638671875
 21
          102.3264007568359375
  0
LINE
  8
1
 62
     3
 10
          254.9452362060546875
 20
           42.3264007568359375
 11
          254.9452362060546875
 21
          101.3264007568359375
  0
LINE
  8
1
 62
     3
 10
          334.9452362060546875
 20
           42.3264007568359375
 11
          334.9452362060546875
 21
          101.3264007568359375
  0
LINE
  8
1
 62
     3
 10
          265.9452362060546875
 20
           87.1548278815821504
 11
          265.9452362060546875
 21
          101.3264007568359375
  0
LINE
  8
1
 62
     3
 10
          323.9452362060546875
 20
           87.1548278815821789
 11
          323.9452362060546875
 21
          101.3264007568359375
  0
LINE
  8
1
 62
     3
 10
          276.0163040179201630
 20
           76.2553329449704620
 11
          266.5310226436815810
 21
           85.7406143192090440
  0
LINE
  8
1
 62
     3
 10
          313.8741683941892120
 20
           76.2553329449704620
 11
          323.3594497684277940
 21
           85.7406143192090724
  0
LINE
  8
1
 62
     3
 10
          275.9678859368650592
 20
          136.3264007568359375
 11
          272.5037843217273235
 21
          130.3264007568359375
  0
LINE
  8
1
 62
     3
 10
          313.9225864752443158
 20
          136.3264007568359375
 11
          317.3866880903820515
 21
          130.3264007568359375
  0
LINE
  8
1
 62
     3
 10
          256.9452362060546875
 20
           56.3264007568359375
 11
          276.9452362060546875
 21
           56.3264007568359375
  0
LINE
  8
1
 62
     3
 10
          312.9452362060546875
 20
           56.3264007568359375
 11
          332.9452362060546875
 21
           56.3264007568359375
  0
LINE
  8
1
 62
     3
 10
          273.7862426360433119
 20
          132.5476837158203125
 11
          316.1175994873046875
 21
          132.5476837158203125
  0
LINE
  8
1
 62
     3
 10
          129.5112762451171875
 20
           48.3264007568359375
 11
          139.5112762451171875
 21
           48.3264007568359375
  0
LINE
  8
1
 62
     3
 10
           99.5112762451171875
 20
           42.3264007568359233
 11
          129.5112762451171875
 21
           42.3264007568359233
  0
LINE
  8
1
 62
     3
 10
           99.5112762451171875
 20
           42.3264007568359233
 11
          129.5112762451171875
 21
           42.3264007568359233
  0
LINE
  8
1
 62
     3
 10
          129.5112762451171875
 20
           42.3264007568359233
 11
          129.5112762451171875
 21
           48.3264007568359375
  0
LINE
  8
1
 62
     3
 10
          139.5112762451171875
 20
           42.3264007568359233
 11
          139.5112762451171875
 21
           48.3264007568359375
  0
LINE
  8
1
 62
     3
 10
          139.5112762451171875
 20
           42.3264007568359233
 11
          169.5112762451171875
 21
           42.3264007568359233
  0
LINE
  8
1
 62
     3
 10
          139.5112762451171875
 20
           42.3264007568359233
 11
          169.5112762451171875
 21
           42.3264007568359233
  0
LINE
  8
1
 62
     3
 10
          139.5112762451171875
 20
           42.3264007568359233
 11
          169.5112762451171875
 21
           42.3264007568359233
  0
LINE
  8
1
 62
     3
 10
          289.9452362060546875
 20
           48.3264007568359375
 11
          299.9452362060546875
 21
           48.3264007568359375
  0
LINE
  8
1
 62
     3
 10
          289.9452362060546875
 20
           42.3264007568359375
 11
          289.9452362060546875
 21
           48.3264007568359375
  0
LINE
  8
1
 62
     3
 10
          299.9452362060546875
 20
           42.3264007568359375
 11
          299.9452362060546875
 21
           48.3264007568359375
  0
LINE
  8
1
 62
     3
 10
          299.9452362060546875
 20
           42.3264007568359375
 11
          334.9452362060546875
 21
           42.3264007568359375
  0
LINE
  8
1
 62
     3
 10
          254.9452362060546875
 20
          103.3264007568359375
 11
          268.9644740925215274
 21
          103.3264007568359375
  0
LINE
  8
1
 62
     3
 10
          254.9452362060546875
 20
          101.3264007568359375
 11
          268.9644740925215274
 21
          101.3264007568359375
  0
LINE
  8
1
 62
     3
 10
          254.9452362060546875
 20
          103.3264007568359375
 11
          254.9452362060546875
 21
          128.3264007568359375
  0
LINE
  8
1
 62
     3
 10
          265.9452362060546875
 20
          103.3264007568359375
 11
          265.9452362060546875
 21
          128.3264007568359375
  0
LINE
  8
1
 62
     3
 10
          323.9452362060546875
 20
          103.3264007568359375
 11
          323.9452362060546875
 21
          128.3264007568359375
  0
LINE
  8
1
 62
     3
 10
          334.9452362060546875
 20
          103.3264007568359375
 11
          334.9452362060546875
 21
          128.3264007568359375
  0
LINE
  8
1
 62
     3
 10
          320.9259983195878476
 20
          103.3264007568359375
 11
          334.9452362060546875
 21
          103.3264007568359375
  0
LINE
  8
1
 62
     3
 10
          320.9259983195878476
 20
          101.3264007568359375
 11
          334.9452362060546875
 21
          101.3264007568359375
  0
LINE
  8
1
 62
     3
 10
          156.5112762451171875
 20
          103.3264007568359375
 11
          156.5112762451171875
 21
          129.3264007568359375
  0
LINE
  8
1
 62
     3
 10
          112.5112762451171875
 20
          103.3264007568359375
 11
          112.5112762451171875
 21
          129.3264007568359375
  0
LINE
  8
1
  6
CENTER
 62
     1
 10
          154.2612762451171875
 20
          256.7603607177734375
 11
          164.7612762451171875
 21
          256.7603607177734375
  0
LINE
  8
1
  6
CENTER
 62
     1
 10
          159.5112762451171875
 20
          251.5103607177734375
 11
          159.5112762451171875
 21
          262.0103607177734375
  0
LINE
  8
1
  6
CENTER
 62
     1
 10
          154.2612762451171875
 20
          192.7603607177734375
 11
          164.7612762451171875
 21
          192.7603607177734375
  0
LINE
  8
1
  6
CENTER
 62
     1
 10
          159.5112762451171875
 20
          187.5103607177734375
 11
          159.5112762451171875
 21
          198.0103607177734375
  0
LINE
  8
1
  6
CENTER
 62
     1
 10
          104.2612762451172159
 20
          192.7603607177734375
 11
          114.7612762451172159
 21
          192.7603607177734375
  0
LINE
  8
1
  6
CENTER
 62
     1
 10
          109.5112762451172159
 20
          187.5103607177734375
 11
          109.5112762451172159
 21
          198.0103607177734375
  0
LINE
  8
1
  6
CENTER
 62
     1
 10
          104.2612762451172159
 20
          256.7603607177734375
 11
          114.7612762451172159
 21
          256.7603607177734375
  0
LINE
  8
1
  6
CENTER
 62
     1
 10
          109.5112762451172159
 20
          251.5103607177734375
 11
          109.5112762451172159
 21
          262.0103607177734375
  0
LINE
  8
1
  6
CENTER
 62
     1
 10
          159.5112762451171875
 20
           37.7320785522460938
 11
          159.5112762451171875
 21
           60.8943443298339844
  0
LINE
  8
1
  6
CENTER
 62
     1
 10
          109.5112762451172301
 20
           37.7320785522460938
 11
          109.5112762451172301
 21
           60.8943443298339844
  0
LINE
  8
1
  6
CENTER
 62
     1
 10
          262.9452362060546875
 20
           37.7320785522460938
 11
          262.9452362060546875
 21
           60.8943443298339844
  0
LINE
  8
1
  6
CENTER
 62
     1
 10
          326.9452362060546875
 20
           37.7320785522460938
 11
          326.9452362060546875
 21
           60.8943443298339844
  0
LINE
  8
1
 62
     3
 10
          258.9452362060546875
 20
          135.9264067568359451
 11
          259.6380312060546771
 21
          136.3264007568359375
  0
LINE
  8
1
 62
     3
 10
          258.9452442060546673
 20
          130.3264007568359375
 11
          258.9452362060546875
 21
          135.9264067568359451
  0
LINE
  8
1
 62
     3
 10
          268.9452362060546875
 20
          135.9264067568359451
 11
          268.2524412060546979
 21
          136.3264007568359375
  0
LINE
  8
1
 62
     3
 10
          268.9452362060546875
 20
          135.9264067568359451
 11
          258.9452362060546875
 21
          135.9264067568359451
  0
LINE
  8
1
 62
     3
 10
          268.2524412060546979
 20
          136.3264007568359375
 11
          259.6380312060546771
 21
          136.3264007568359375
  0
LINE
  8
1
 62
     3
 10
          268.9452362060546875
 20
          130.3264007568359375
 11
          268.9452362060546875
 21
          135.9264067568359451
  0
LINE
  8
1
 62
     3
 10
          320.9452362060546875
 20
          135.9264067568359451
 11
          321.6380312060546771
 21
          136.3264007568359375
  0
LINE
  8
1
 62
     3
 10
          320.9452442060546673
 20
          130.3264007568359375
 11
          320.9452362060546875
 21
          135.9264067568359451
  0
LINE
  8
1
 62
     3
 10
          330.9452362060546875
 20
          135.9264067568359451
 11
          330.2524412060546979
 21
          136.3264007568359375
  0
LINE
  8
1
 62
     3
 10
          330.9452362060546875
 20
          135.9264067568359451
 11
          320.9452362060546875
 21
          135.9264067568359451
  0
LINE
  8
1
 62
     3
 10
          330.2524412060546979
 20
          136.3264007568359375
 11
          321.6380312060546771
 21
          136.3264007568359375
  0
LINE
  8
1
 62
     3
 10
          330.9452362060546875
 20
          130.3264007568359375
 11
          330.9452362060546875
 21
          135.9264067568359451
  0
LINE
  8
1
 62
     3
 10
          144.5112762451171875
 20
          135.9264067568359451
 11
          145.2040712451171771
 21
          136.3264007568359375
  0
LINE
  8
1
 62
     3
 10
          144.5112842451171957
 20
          130.3264007568359375
 11
          144.5112762451171875
 21
          135.9264067568359451
  0
LINE
  8
1
 62
     3
 10
          154.5112762451171875
 20
          135.9264067568359451
 11
          153.8184812451171979
 21
          136.3264007568359375
  0
LINE
  8
1
 62
     3
 10
          154.5112762451171875
 20
          135.9264067568359451
 11
          144.5112762451171875
 21
          135.9264067568359451
  0
LINE
  8
1
 62
     3
 10
          153.8184812451171979
 20
          136.3264007568359375
 11
          145.2040712451171771
 21
          136.3264007568359375
  0
LINE
  8
1
 62
     3
 10
          154.5112762451171875
 20
          130.3264007568359375
 11
          154.5112762451171875
 21
          135.9264067568359451
  0
LINE
  8
1
 62
     3
 10
          114.5112762451171875
 20
          135.9264067568359451
 11
          115.2040712451171771
 21
          136.3264007568359375
  0
LINE
  8
1
 62
     3
 10
          114.5112842451171957
 20
          130.3264007568359375
 11
          114.5112762451171875
 21
          135.9264067568359451
  0
LINE
  8
1
 62
     3
 10
          124.5112762451171875
 20
          135.9264067568359451
 11
          123.8184812451171979
 21
          136.3264007568359375
  0
LINE
  8
1
 62
     3
 10
          124.5112762451171875
 20
          135.9264067568359451
 11
          114.5112762451171875
 21
          135.9264067568359451
  0
LINE
  8
1
 62
     3
 10
          123.8184812451171979
 20
          136.3264007568359375
 11
          115.2040712451171771
 21
          136.3264007568359375
  0
LINE
  8
1
 62
     3
 10
          124.5112762451171875
 20
          130.3264007568359375
 11
          124.5112762451171875
 21
          135.9264067568359451
  0
LINE
  8
1
 62
     3
 10
          148.5112762451171875
 20
           56.3264007568359233
 11
          167.5112762451171875
 21
           56.3264007568359233
  0
LINE
  8
1
 62
     3
 10
          317.3866880903820515
 20
          130.3264007568359375
 11
          332.9452362060546875
 21
          130.3264007568359375
  0
ARC
  8
1
 62
     3
 10
          101.5112762451172159
 20
          262.7603607177734375
 40
            2.0000000000000000
 50
           90.0000000000000000
 51
          180.0000000000000000
  0
ARC
  8
1
 62
     3
 10
          167.5112762451171875
 20
          262.7603607177734375
 40
            2.0000000000000000
 50
            0.0000000000000000
 51
           90.0000000000000000
  0
ARC
  8
1
 62
     3
 10
          101.5112762451172159
 20
          186.7603607177734375
 40
            2.0000000000000000
 50
         -180.0000000000000000
 51
          -90.0000000000000000
  0
ARC
  8
1
 62
     3
 10
          167.5112762451171875
 20
          186.7603607177734375
 40
            2.0000000000000000
 50
          -90.0000000000000000
 51
            0.0000000000000000
  0
ARC
  8
1
 62
     3
 10
          167.5112762451171875
 20
          251.7603607177734375
 40
            2.0000000000000000
 50
            0.0000000000000000
 51
           90.0000000000000000
  0
ARC
  8
1
 62
     3
 10
          101.5112762451172159
 20
          251.7603607177734375
 40
            2.0000000000000000
 50
           90.0000000000000000
 51
          180.0000000000000000
  0
ARC
  8
1
 62
     3
 10
          101.5112762451172159
 20
          197.7603607177734375
 40
            2.0000000000000000
 50
          180.0000000000000000
 51
          270.0000000000000000
  0
ARC
  8
1
 62
     3
 10
          167.5112762451171875
 20
          197.7603607177734375
 40
            2.0000000000000000
 50
          -90.0000000000000000
 51
            0.0000000000000000
  0
ARC
  8
1
 62
     3
 10
          109.5112762451172159
 20
          256.7603607177734375
 40
            3.2500000000000000
 50
          -66.1856667021243368
 51
          -23.6662671379190144
  0
ARC
  8
1
 62
     3
 10
          159.5112762451171875
 20
          256.7603607177734375
 40
            3.2500000000000000
 50
         -156.3337328620822007
 51
         -113.6662671379184104
  0
ARC
  8
1
 62
     3
 10
          159.5112762451171875
 20
          192.7603607177734375
 40
            3.2500000000000000
 50
          113.6662671379184104
 51
          156.3337328620822007
  0
ARC
  8
1
 62
     3
 10
          110.5112762451172159
 20
          193.7603607177734375
 40
            2.0000000000000000
 50
            0.0000000000000000
 51
           90.0000000000000000
  0
ARC
  8
1
 62
     3
 10
          158.5112762451171875
 20
          193.7603607177734375
 40
            2.0000000000000000
 50
           90.0000000000000000
 51
          180.0000000000000000
  0
ARC
  8
1
 62
     3
 10
          158.5112762451171875
 20
          255.7603607177734375
 40
            2.0000000000000000
 50
         -180.0000000000000000
 51
          -90.0000000000000000
  0
ARC
  8
1
 62
     3
 10
          110.5112762451172159
 20
          255.7603607177734375
 40
            2.0000000000000000
 50
          -90.0000000000000000
 51
            0.0000000000000000
  0
ARC
  8
1
 62
     3
 10
          172.1268043732055162
 20
           86.7108726287476372
 40
           30.0000000000000000
 50
          121.3669815063475852
 51
          146.3683933623792086
  0
ARC
  8
1
 62
     3
 10
           96.8957481170288872
 20
           86.7108726287476372
 40
           30.0000000000000000
 50
           33.6316066376207772
 51
           58.6330223083496662
  0
ARC
  8
1
 62
     3
 10
          173.0173261147579638
 20
           59.2754463298898031
 40
           30.0000000000000000
 50
          123.3808517456054688
 51
          152.0717773437500000
  0
ARC
  8
1
 62
     3
 10
           96.0052263754764397
 20
           59.2754463298898031
 40
           30.0000000000000000
 50
           27.9282264709472656
 51
           56.6191520690917969
  0
ARC
  8
1
 62
     3
 10
          120.5112762451171875
 20
           58.3264007568359233
 40
            2.0000000000000000
 50
          -90.0000000000000000
 51
            0.0000000000000000
  0
ARC
  8
1
 62
     3
 10
          148.5112762451171875
 20
           58.3264007568359233
 40
            2.0000000000000000
 50
         -180.0000000000000000
 51
          -90.0000000000000000
  0
ARC
  8
1
 62
     3
 10
          167.5112762451171875
 20
          128.3264007568359375
 40
            2.0000000000000000
 50
            0.0000000000000000
 51
           90.0000000000000000
  0
ARC
  8
1
 62
     3
 10
          101.5112762451172159
 20
          128.3264007568359375
 40
            2.0000000000000000
 50
           90.0000000000000000
 51
          180.0000000000000000
  0
ARC
  8
1
 62
     3
 10
          101.5112762451171875
 20
           54.3264007568359233
 40
            2.0000000000000000
 50
           90.0000000000000000
 51
          180.0000000000000000
  0
ARC
  8
1
 62
     3
 10
          167.5112762451171875
 20
           54.3264007568359233
 40
            2.0000000000000000
 50
            0.0000000000000000
 51
           90.0000000000000000
  0
ARC
  8
1
 62
     3
 10
          113.5112762451171875
 20
          129.3264007568359375
 40
            1.0000000000000000
 50
           90.0000000000000000
 51
          180.0000000000000000
  0
ARC
  8
1
 62
     3
 10
          155.5112762451171875
 20
          129.3264007568359375
 40
            1.0000000000000000
 50
            0.0000000000000000
 51
           90.0000000000000000
  0
ARC
  8
1
 62
     3
 10
          100.5112762451171875
 20
           55.3264007568359233
 40
            1.0000000000000000
 50
           90.0000000000000000
 51
          180.0000000000000000
  0
ARC
  8
1
 62
     3
 10
          109.5112762451172159
 20
          192.7603607177734375
 40
            3.2500000000000000
 50
          112.6198649480404015
 51
          337.3801350519582911
  0
ARC
  8
1
 62
     3
 10
          109.5112762451172159
 20
          192.7603607177734375
 40
            3.2500000000000000
 50
           23.6662671379190144
 51
           66.3337328620810212
  0
ARC
  8
1
 62
     3
 10
          159.5112762451171875
 20
          192.7603607177734375
 40
            3.2500000000000000
 50
         -157.3801350519595417
 51
           67.3801350519595417
  0
ARC
  8
1
 62
     3
 10
          109.5112762451172159
 20
          256.7603607177734375
 40
            3.2500000000000000
 50
           22.6198649480417231
 51
          247.3801350519595417
  0
ARC
  8
1
 62
     3
 10
          159.5112762451171875
 20
          256.7603607177734375
 40
            3.2500000000000000
 50
          -67.3801350519595559
 51
          157.3801350519595985
  0
ARC
  8
1
 62
     3
 10
          256.9452362060546875
 20
          128.3264007568359375
 40
            2.0000000000000000
 50
           90.0000000000000000
 51
          180.0000000000000000
  0
ARC
  8
1
 62
     3
 10
          332.9452362060546875
 20
          128.3264007568359375
 40
            2.0000000000000000
 50
            0.0000000000000000
 51
           90.0000000000000000
  0
ARC
  8
1
 62
     3
 10
          277.6999367444339555
 20
          135.3264007568359375
 40
            2.0000000000000000
 50
           90.0000000000000000
 51
          150.0000000000002842
  0
ARC
  8
1
 62
     3
 10
          312.1905356676754195
 20
          135.3264007568359375
 40
            2.0000000000000000
 50
           29.9999999999997300
 51
           90.0000000000000000
  0
ARC
  8
1
 62
     3
 10
          321.9452362060546875
 20
           87.1548278815821789
 40
            2.0000000000000000
 50
          -45.0000000000000000
 51
            0.0000000000000000
  0
ARC
  8
1
 62
     3
 10
          267.9452362060546875
 20
           87.1548278815821504
 40
            2.0000000000000000
 50
         -180.0000000000000000
 51
         -135.0000000000000000
  0
ARC
  8
1
 62
     3
 10
          276.9452362060546875
 20
           58.3264007568359375
 40
            2.0000000000000000
 50
          -90.0000000000000000
 51
            0.0000000000000000
  0
ARC
  8
1
 62
     3
 10
          312.9452362060546875
 20
           58.3264007568359375
 40
            2.0000000000000000
 50
         -180.0000000000000000
 51
          -90.0000000000000000
  0
ARC
  8
1
 62
     3
 10
          256.9452362060546875
 20
           54.3264007568359375
 40
            2.0000000000000000
 50
           90.0000000000000000
 51
          180.0000000000000000
  0
ARC
  8
1
 62
     3
 10
          256.9452362060546875
 20
           54.3264007568359375
 40
            2.0000000000000000
 50
           90.0000000000000000
 51
          180.0000000000000000
  0
ARC
  8
1
 62
     3
 10
          276.9452362060546875
 20
           58.3264007568359375
 40
            2.0000000000000000
 50
          -90.0000000000000000
 51
            0.0000000000000000
  0
ARC
  8
1
 62
     3
 10
          312.9452362060546875
 20
           58.3264007568359375
 40
            2.0000000000000000
 50
         -180.0000000000000000
 51
          -90.0000000000000000
  0
ARC
  8
1
 62
     3
 10
          332.9452362060546875
 20
           54.3264007568359375
 40
            2.0000000000000000
 50
            0.0000000000000000
 51
           90.0000000000000000
  0
ARC
  8
1
 62
     3
 10
          267.9452362060546875
 20
          128.3264007568359375
 40
            2.0000000000000000
 50
           90.0000000000000000
 51
          180.0000000000000000
  0
ARC
  8
1
 62
     3
 10
          321.9452362060546875
 20
          128.3264007568359375
 40
            2.0000000000000000
 50
            0.0000000000000000
 51
           90.0000000000000000
  0
ARC
  8
1
 62
     3
 10
          268.9452362060546875
 20
           69.1842651331049865
 40
           10.0000000000000000
 50
            0.0000000000000000
 51
           45.0000000000000000
  0
ARC
  8
1
 62
     3
 10
          320.9452362060546875
 20
           69.1842651331049865
 40
           10.0000000000000000
 50
          135.0000000000000000
 51
          180.0000000000000000
  0
ARC
  8
1
 62
     3
 10
          294.9452362060546875
 20
          102.3264007568359375
 40
           26.0000000000000000
 50
         -177.7957724960280643
 51
           -2.2042275039719073
  0
ARC
  8
1
 62
     3
 10
          294.9452362060546875
 20
          102.3264007568359375
 40
           26.0000000000000000
 50
            2.2042275039719130
 51
          177.7957724960281212
  0
CIRCLE
  8
1
 62
     3
 10
          149.5112762451171875
 20
          193.7603607177734375
 40
            5.0000000000000000
  0
CIRCLE
  8
1
 62
     3
 10
          149.5112762451171875
 20
          193.7603607177734375
 40
            4.2999999999999998
  0
CIRCLE
  8
1
 62
     3
 10
          119.5112762451171875
 20
          193.7603607177734375
 40
            5.0000000000000000
  0
CIRCLE
  8
1
 62
     3
 10
          119.5112762451171875
 20
          193.7603607177734375
 40
            4.2999999999999998
  0
CIRCLE
  8
1
 62
     3
 10
          119.5112762451171875
 20
          255.7603607177734375
 40
            5.0000000000000000
  0
CIRCLE
  8
1
 62
     3
 10
          119.5112762451171875
 20
          255.7603607177734375
 40
            4.2999999999999998
  0
CIRCLE
  8
1
 62
     3
 10
          149.5112762451171875
 20
          255.7603607177734375
 40
            5.0000000000000000
  0
CIRCLE
  8
1
 62
     3
 10
          149.5112762451171875
 20
          255.7603607177734375
 40
            4.2999999999999998
  0
POLYLINE
  8
1
 66
     1
 70
     1
 62
     3
  0
VERTEX
  8
1
 10
          152.0112762451171875
 20
          192.3169857177734343
  0
VERTEX
  8
1
 10
          152.0112762451171875
 20
          195.2037357177734407
  0
VERTEX
  8
1
 10
          149.5112762451171875
 20
          196.6471137177734363
  0
VERTEX
  8
1
 10
          147.0112762451171875
 20
          195.2037357177734407
  0
VERTEX
  8
1
 10
          147.0112762451171875
 20
          192.3169827177734419
  0
VERTEX
  8
1
 10
          149.5112762451171875
 20
          190.8736077177734387
  0
VERTEX
  8
1
 10
          152.0112762451171875
 20
          192.3169857177734343
  0
SEQEND
  0
POLYLINE
  8
1
 66
     1
 70
     1
 62
     3
  0
VERTEX
  8
1
 10
          122.0112762451171875
 20
          192.3169857177734343
  0
VERTEX
  8
1
 10
          122.0112762451171875
 20
          195.2037357177734407
  0
VERTEX
  8
1
 10
          119.5112762451171875
 20
          196.6471137177734363
  0
VERTEX
  8
1
 10
          117.0112762451171875
 20
          195.2037357177734407
  0
VERTEX
  8
1
 10
          117.0112762451171875
 20
          192.3169827177734419
  0
VERTEX
  8
1
 10
          119.5112762451171875
 20
          190.8736077177734387
  0
VERTEX
  8
1
 10
          122.0112762451171875
 20
          192.3169857177734343
  0
SEQEND
  0
POLYLINE
  8
1
 66
     1
 70
     1
 62
     3
  0
VERTEX
  8
1
 10
          122.0112762451171875
 20
          254.3169857177734343
  0
VERTEX
  8
1
 10
          122.0112762451171875
 20
          257.2037357177734407
  0
VERTEX
  8
1
 10
          119.5112762451171875
 20
          258.6471137177734363
  0
VERTEX
  8
1
 10
          117.0112762451171875
 20
          257.2037357177734407
  0
VERTEX
  8
1
 10
          117.0112762451171875
 20
          254.3169827177734419
  0
VERTEX
  8
1
 10
          119.5112762451171875
 20
          252.8736077177734387
  0
VERTEX
  8
1
 10
          122.0112762451171875
 20
          254.3169857177734343
  0
SEQEND
  0
POLYLINE
  8
1
 66
     1
 70
     1
 62
     3
  0
VERTEX
  8
1
 10
          152.0112762451171875
 20
          254.3169857177734343
  0
VERTEX
  8
1
 10
          152.0112762451171875
 20
          257.2037357177734407
  0
VERTEX
  8
1
 10
          149.5112762451171875
 20
          258.6471137177734363
  0
VERTEX
  8
1
 10
          147.0112762451171875
 20
          257.2037357177734407
  0
VERTEX
  8
1
 10
          147.0112762451171875
 20
          254.3169827177734419
  0
VERTEX
  8
1
 10
          149.5112762451171875
 20
          252.8736077177734387
  0
VERTEX
  8
1
 10
          152.0112762451171875
 20
          254.3169857177734343
  0
SEQEND
  0
TEXT
  8
1
 62
     3
 10
          249.7112731933593750
 20
          184.6169586181640625
 40
            5.0000000000000000
  1
LC-52
 50
            0.0000000000000000
 41
            0.6720000000000000
  7
STANDARD
  0
TEXT
  8
1
 62
     3
 10
          249.8188751220702954
 20
          177.3320922851562500
 40
            5.0000000000000000
  1
1996.07.03
 50
            0.0000000000000000
 41
            0.6720000000000000
  7
STANDARD
  0
ENDSEC
  0
EOF
