  0
SECTION
  2
HEADER
  9
$ACADVER
  1
AC1009
  9
$DWGCODEPAGE
  3
dos932
  9
$INSBASE
 10
0.0
 20
0.0
 30
0.0
  9
$EXTMIN
 10
11.0662841796875
 20
9.467315673828125
 30
1.0000000000000000E+20
  9
$EXTMAX
 10
276.82373046875
 20
316.69610595703125
 30
-1.0000000000000000E+20
  9
$LIMMIN
 10
0.0
 20
0.0
  9
$LIMMAX
 10
12.0
 20
9.0
  9
$ORTHOMODE
 70
               0
  9
$REGENMODE
 70
               1
  9
$FILLMODE
 70
               1
  9
$QTEXTMODE
 70
               0
  9
$MIRRTEXT
 70
               1
  9
$DRAGMODE
 70
               2
  9
$LTSCALE
 40
5.1204798380533854
  9
$OSMODE
 70
               0
  9
$ATTMODE
 70
               1
  9
$TEXTSIZE
 40
3.2000000000000002
  9
$TRACEWID
 40
0.05
  9
$TEXTSTYLE
  7
STANDARD
  9
$CLAYER
  8
0
  9
$CELTYPE
  6
CONTINUOUS
  9
$CECOLOR
 62
             256
  9
$DIMSCALE
 40
1.0
  9
$DIMASZ
 40
0.18
  9
$DIMEXO
 40
0.0625
  9
$DIMDLI
 40
0.38
  9
$DIMRND
 40
0.0
  9
$DIMDLE
 40
0.0
  9
$DIMEXE
 40
0.18
  9
$DIMTP
 40
0.0
  9
$DIMTM
 40
0.0
  9
$DIMTXT
 40
0.18
  9
$DIMCEN
 40
0.09
  9
$DIMTSZ
 40
0.0
  9
$DIMTOL
 70
               0
  9
$DIMLIM
 70
               0
  9
$DIMTIH
 70
               1
  9
$DIMTOH
 70
               1
  9
$DIMSE1
 70
               0
  9
$DIMSE2
 70
               0
  9
$DIMTAD
 70
               0
  9
$DIMZIN
 70
               0
  9
$DIMBLK
  1

  9
$DIMASO
 70
               1
  9
$DIMSHO
 70
               1
  9
$DIMPOST
  1

  9
$DIMAPOST
  1

  9
$DIMALT
 70
               0
  9
$DIMALTD
 70
               2
  9
$DIMALTF
 40
25.399999999999999
  9
$DIMLFAC
 40
1.0
  9
$DIMTOFL
 70
               0
  9
$DIMTVP
 40
0.0
  9
$DIMTIX
 70
               0
  9
$DIMSOXD
 70
               0
  9
$DIMSAH
 70
               0
  9
$DIMBLK1
  1

  9
$DIMBLK2
  1

  9
$DIMSTYLE
  2
STANDARD
  9
$DIMCLRD
 70
               0
  9
$DIMCLRE
 70
               0
  9
$DIMCLRT
 70
               0
  9
$DIMTFAC
 40
1.0
  9
$DIMGAP
 40
0.09
  9
$LUNITS
 70
               2
  9
$LUPREC
 70
               4
  9
$AXISMODE
 70
               0
  9
$AXISUNIT
 10
0.0
 20
0.0
  9
$SKETCHINC
 40
0.1
  9
$FILLETRAD
 40
0.0
  9
$AUNITS
 70
               0
  9
$AUPREC
 70
               0
  9
$MENU
  1
acad
  9
$ELEVATION
 40
0.0
  9
$PELEVATION
 40
0.0
  9
$THICKNESS
 40
0.0
  9
$LIMCHECK
 70
               0
  9
$BLIPMODE
 70
               1
  9
$CHAMFERA
 40
0.0
  9
$CHAMFERB
 40
0.0
  9
$SKPOLY
 70
               0
  9
$TDCREATE
 40
0.000000000
  9
$TDUPDATE
 40
0.000000000
  9
$TDINDWG
 40
0.0000000000
  9
$TDUSRTIMER
 40
0.0000000000
  9
$USRTIMER
 70
               1
  9
$ANGBASE
 50
0.0
  9
$ANGDIR
 70
               0
  9
$PDMODE
 70
               0
  9
$PDSIZE
 40
0.0
  9
$PLINEWID
 40
0.0
  9
$COORDS
 70
               1
  9
$SPLFRAME
 70
               0
  9
$SPLINETYPE
 70
               6
  9
$SPLINESEGS
 70
               8
  9
$ATTDIA
 70
               0
  9
$ATTREQ
 70
               1
  9
$HANDLING
 70
               1
  9
$HANDSEED
  5
E5
  9
$SURFTAB1
 70
               6
  9
$SURFTAB2
 70
               6
  9
$SURFTYPE
 70
               6
  9
$SURFU
 70
               6
  9
$SURFV
 70
               6
  9
$UCSNAME
  2

  9
$UCSORG
 10
0.0
 20
0.0
 30
0.0
  9
$UCSXDIR
 10
1.0
 20
0.0
 30
0.0
  9
$UCSYDIR
 10
0.0
 20
1.0
 30
0.0
  9
$PUCSNAME
  2

  9
$PUCSORG
 10
0.0
 20
0.0
 30
0.0
  9
$PUCSXDIR
 10
1.0
 20
0.0
 30
0.0
  9
$PUCSYDIR
 10
0.0
 20
1.0
 30
0.0
  9
$USERI1
 70
               0
  9
$USERI2
 70
               0
  9
$USERI3
 70
               0
  9
$USERI4
 70
               0
  9
$USERI5
 70
               0
  9
$USERR1
 40
0.0
  9
$USERR2
 40
0.0
  9
$USERR3
 40
0.0
  9
$USERR4
 40
0.0
  9
$USERR5
 40
0.0
  9
$WORLDVIEW
 70
               1
  9
$SHADEDGE
 70
               3
  9
$SHADEDIF
 70
              70
  9
$TILEMODE
 70
               1
  9
$MAXACTVP
 70
              16
  9
$PINSBASE
 10
0.0
 20
0.0
 30
0.0
  9
$PLIMCHECK
 70
               0
  9
$PEXTMIN
 10
1.0000000000000000E+20
 20
1.0000000000000000E+20
 30
1.0000000000000000E+20
  9
$PEXTMAX
 10
-1.0000000000000000E+20
 20
-1.0000000000000000E+20
 30
-1.0000000000000000E+20
  9
$PLIMMIN
 10
0.0
 20
0.0
  9
$PLIMMAX
 10
12.0
 20
9.0
  9
$UNITMODE
 70
               0
  9
$VISRETAIN
 70
               0
  9
$PLINEGEN
 70
               0
  9
$PSLTSCALE
 70
               1
  9
$TREEDEPTH
 70
            3020
  0
ENDSEC
  0
SECTION
  2
TABLES
  0
TABLE
  2
VPORT
 70
               1
  0
VPORT
  2
*ACTIVE
 70
               0
 10
0.0
 20
0.0
 11
1.0
 21
1.0
 12
143.94500732421875
 22
163.08171081542969
 13
0.0
 23
0.0
 14
1.0
 24
1.0
 15
0.0
 25
0.0
 16
0.0
 26
0.0
 36
1.0
 17
0.0
 27
0.0
 37
0.0
 40
310.30107818603517
 41
1.6912879999999999
 42
50.0
 43
0.0
 44
0.0
 50
0.0
 51
0.0
 71
               0
 72
             100
 73
               1
 74
               1
 75
               0
 76
               0
 77
               0
 78
               0
  0
ENDTAB
  0
TABLE
  2
LTYPE
 70
               5
  0
LTYPE
  2
CONTINUOUS
 70
              64
  3
Solid line
 72
              65
 73
               0
 40
0.0
  0
LTYPE
  2
DASHED
 70
              64
  3
DASHED
 72
              65
 73
               2
 40
0.75
 49
0.5
 49
-0.25
  0
LTYPE
  2
HIDDEN
 70
              64
  3
HIDDEN
 72
              65
 73
               2
 40
0.375
 49
0.25
 49
-0.125
  0
LTYPE
  2
CENTER
 70
              64
  3
CENTER
 72
              65
 73
               4
 40
2.0
 49
1.25
 49
-0.25
 49
0.25
 49
-0.25
  0
LTYPE
  2
PHANTOM
 70
              64
  3
PHANTOM
 72
              65
 73
               6
 40
2.5
 49
1.25
 49
-0.25
 49
0.25
 49
-0.25
 49
0.25
 49
-0.25
  0
ENDTAB
  0
TABLE
  2
LAYER
 70
               2
  0
LAYER
  2
0
 70
               0
 62
               7
  6
CONTINUOUS
  0
LAYER
  2
001
 70
               0
 62
               7
  6
CONTINUOUS
  0
ENDTAB
  0
TABLE
  2
STYLE
 70
               2
  0
STYLE
  2
STANDARD
 70
               0
 40
0.0
 41
1.0
 50
0.0
 71
               0
 42
0.2
  3
TXT
  4
BIGFONT
  0
STYLE
  2
TATEGAKI
 70
               4
 40
1.0
 41
1.0
 50
0.0
 71
               0
 42
0.2
  3
TXT
  4
BIGFONT
  0
ENDTAB
  0
TABLE
  2
VIEW
 70
               0
  0
ENDTAB
  0
TABLE
  2
UCS
 70
               0
  0
ENDTAB
  0
TABLE
  2
APPID
 70
               1
  0
APPID
  2
ACAD
 70
               0
  0
ENDTAB
  0
TABLE
  2
DIMSTYLE
 70
               1
  0
DIMSTYLE
  2
STANDARD
 70
               0
  3

  4

  5

  6

  7

 40
1.0
 41
0.18
 42
0.0625
 43
0.38
 44
0.18
 45
0.0
 46
0.0
 47
0.0
 48
0.0
 71
               0
 72
               0
 73
               1
 74
               1
 75
               0
 76
               0
 77
               0
 78
               0
140
0.18
141
0.09
142
0.0
143
25.399999999999999
144
1.0
145
0.0
146
1.0
147
0.09
170
               0
171
               2
172
               0
173
               0
174
               0
175
               0
176
               0
177
               0
178
               0
  0
ENDTAB
  0
ENDSEC
  0
SECTION
  2
BLOCKS
  0
ENDSEC
  0
SECTION
  2
ENTITIES
  0
LINE
  8
001
  6
CENTER
  5
23
 10
168.76613286694288
 20
124.20554517786206
 30
0.0
 11
276.82373719629697
 21
124.20554517786206
 31
0.0
  0
LINE
  8
001
  6
CENTER
  5
24
 10
222.45461244009857
 20
50.875416063645176
 30
0.0
 11
222.45461244009857
 21
174.17246510967755
 31
0.0
  0
LINE
  8
001
 62
               3
  5
25
 10
256.43990337603145
 20
123.20554517786206
 30
0.0
 11
272.45461244009857
 21
123.20554517786206
 31
0.0
  0
LINE
  8
001
 62
               3
  5
26
 10
256.43990337603145
 20
125.20554517786206
 30
0.0
 11
272.45461244009857
 21
125.20554517786206
 31
0.0
  0
LINE
  8
001
 62
               3
  5
27
 10
188.46932150416569
 20
123.20554517786206
 30
0.0
 11
172.45461244009857
 21
123.20554517786206
 31
0.0
  0
LINE
  8
001
 62
               3
  5
28
 10
188.46932150416569
 20
125.20554517786206
 30
0.0
 11
172.45461244009857
 21
125.20554517786206
 31
0.0
  0
ARC
  8
001
 62
               3
  5
29
 10
222.45461244009857
 20
124.20554517786206
 30
0.0
 40
34.0
 50
1.6854130402226191
 51
178.31458695977736
  0
ARC
  8
001
 62
               3
  5
2A
 10
222.45461244009857
 20
124.20554517786206
 30
0.0
 40
34.0
 50
181.68541304022264
 51
358.31458695977739
  0
LINE
  8
001
 62
               3
  5
2B
 10
272.45461244009857
 20
54.205545177862064
 30
0.0
 11
272.45461244009857
 21
123.20554517786206
 31
0.0
  0
LINE
  8
001
 62
               3
  5
2C
 10
272.45461244009857
 20
156.70554517786206
 30
0.0
 11
272.45461244009857
 21
125.20554517786206
 31
0.0
  0
LINE
  8
001
 62
               3
  5
2D
 10
172.45461244009857
 20
54.205545177862064
 30
0.0
 11
172.45461244009857
 21
123.20554517786206
 31
0.0
  0
LINE
  8
001
 62
               3
  5
2E
 10
172.45461244009857
 20
156.70554517786206
 30
0.0
 11
172.45461244009857
 21
125.20554517786206
 31
0.0
  0
LINE
  8
001
 62
               3
  5
2F
 10
227.45461244009857
 20
54.205545177862064
 30
0.0
 11
227.45461244009857
 21
60.205545177862064
 31
0.0
  0
LINE
  8
001
 62
               3
  5
30
 10
217.45461244009857
 20
54.205545177862064
 30
0.0
 11
217.45461244009857
 21
60.205545177862064
 31
0.0
  0
LINE
  8
001
 62
               3
  5
31
 10
227.45461244009857
 20
60.205545177862064
 30
0.0
 11
217.45461244009857
 21
60.205545177862064
 31
0.0
  0
LINE
  8
001
 62
               3
  5
32
 10
217.45461244009857
 20
54.205545177862064
 30
0.0
 11
172.45461244009857
 21
54.205545177862064
 31
0.0
  0
LINE
  8
001
 62
               3
  5
33
 10
227.45461244009857
 20
54.205545177862064
 30
0.0
 11
272.45461244009857
 21
54.205545177862064
 31
0.0
  0
LINE
  8
001
 62
               3
  5
34
 10
24.332059199016641
 20
170.20554517786206
 30
0.0
 11
106.12821162172324
 21
170.20554517786206
 31
0.0
  0
LINE
  8
001
  6
CENTER
  5
35
 10
11.066289045617765
 20
124.20554517786206
 30
0.0
 11
118.60120311260404
 21
124.20554517786206
 31
0.0
  0
LINE
  8
001
  6
CENTER
  5
36
 10
11.066289045617765
 20
266.69611195315485
 30
0.0
 11
118.60120311260404
 21
266.69611195315485
 31
0.0
  0
LINE
  8
001
 62
               3
  5
37
 10
70.23013541036994
 20
54.205545177862064
 30
0.0
 11
70.23013541036994
 21
60.205545177862064
 31
0.0
  0
LINE
  8
001
 62
               3
  5
38
 10
70.23013541036994
 20
60.205545177862064
 30
0.0
 11
60.23013541036994
 21
60.205545177862064
 31
0.0
  0
LINE
  8
001
 62
               3
  5
39
 10
60.23013541036994
 20
54.205545177862064
 30
0.0
 11
60.23013541036994
 21
60.205545177862064
 31
0.0
  0
LINE
  8
001
 62
               3
  5
3A
 10
115.23013541036994
 20
54.205545177862064
 30
0.0
 11
70.23013541036994
 21
54.205545177862064
 31
0.0
  0
LINE
  8
001
 62
               3
  5
3B
 10
60.23013541036994
 20
54.205545177862064
 30
0.0
 11
15.23013541036994
 21
54.205545177862064
 31
0.0
  0
LINE
  8
001
 62
               3
  5
3C
 10
115.23013541036994
 20
125.20554517786206
 30
0.0
 11
15.23013541036994
 21
125.20554517786206
 31
0.0
  0
LINE
  8
001
 62
               3
  5
3D
 10
115.23013541036994
 20
123.20554517786206
 30
0.0
 11
15.23013541036994
 21
123.20554517786206
 31
0.0
  0
LINE
  8
001
 62
               3
  5
3E
 10
115.23013541036994
 20
123.20554517786206
 30
0.0
 11
115.23013541036994
 21
54.205545177862064
 31
0.0
  0
LINE
  8
001
 62
               3
  5
3F
 10
115.23013541036994
 20
164.95054702834344
 30
0.0
 11
115.23013541036994
 21
125.20554517786206
 31
0.0
  0
LINE
  8
001
 62
               3
  5
40
 10
15.23013541036994
 20
54.205545177862064
 30
0.0
 11
15.23013541036994
 21
123.20554517786206
 31
0.0
  0
LINE
  8
001
 62
               3
  5
41
 10
15.23013541036994
 20
164.95054702834344
 30
0.0
 11
15.23013541036994
 21
125.20554517786206
 31
0.0
  0
LINE
  8
001
 62
               3
  5
42
 10
250.45461244009857
 20
69.205545177862064
 30
0.0
 11
271.45461244009857
 21
69.205545177862064
 31
0.0
  0
LINE
  8
001
 62
               3
  5
43
 10
115.23013541036994
 20
219.19611195315485
 30
0.0
 11
115.23013541036994
 21
314.19611195315485
 31
0.0
  0
LINE
  8
001
 62
               3
  5
44
 10
15.23013541036994
 20
314.19611195315485
 30
0.0
 11
15.23013541036994
 21
219.19611195315485
 31
0.0
  0
LINE
  8
001
 62
               3
  5
45
 10
17.73013541036994
 20
316.69611195315485
 30
0.0
 11
112.73013541036994
 21
316.69611195315485
 31
0.0
  0
LINE
  8
001
 62
               3
  5
46
 10
17.73013541036994
 20
216.69611195315485
 30
0.0
 11
112.73013541036994
 21
216.69611195315485
 31
0.0
  0
LINE
  8
001
 62
               3
  5
47
 10
34.259668275389316
 20
223.98111195315485
 30
0.0
 11
34.259668275389316
 21
227.41111195315486
 31
0.0
  0
LINE
  8
001
 62
               3
  5
48
 10
40.200602545350563
 20
227.41111195315486
 30
0.0
 11
40.200602545350563
 21
223.98111195315485
 31
0.0
  0
LINE
  8
001
 62
               3
  5
49
 10
40.200602545350563
 20
223.98111195315485
 30
0.0
 11
37.23013541036994
 21
222.26611195315485
 31
0.0
  0
LINE
  8
001
 62
               3
  5
4A
 10
37.23013541036994
 20
229.12611195315486
 30
0.0
 11
34.259668275389316
 21
227.41111195315486
 31
0.0
  0
LINE
  8
001
 62
               3
  5
4B
 10
37.23013541036994
 20
229.12611195315486
 30
0.0
 11
40.200602545350563
 21
227.41111195315486
 31
0.0
  0
LINE
  8
001
 62
               3
  5
4C
 10
37.23013541036994
 20
222.26611195315485
 30
0.0
 11
34.259668275389316
 21
223.98111195315485
 31
0.0
  0
CIRCLE
  8
001
 62
               3
  5
4D
 10
37.23013541036994
 20
225.69611195315485
 30
0.0
 40
6.5
  0
LINE
  8
001
 62
               3
  5
4E
 10
90.259668275389316
 20
223.98111195315485
 30
0.0
 11
90.259668275389316
 21
227.41111195315486
 31
0.0
  0
LINE
  8
001
 62
               3
  5
4F
 10
96.200602545350563
 20
227.41111195315486
 30
0.0
 11
96.200602545350563
 21
223.98111195315485
 31
0.0
  0
LINE
  8
001
 62
               3
  5
50
 10
96.200602545350563
 20
223.98111195315485
 30
0.0
 11
93.23013541036994
 21
222.26611195315485
 31
0.0
  0
LINE
  8
001
 62
               3
  5
51
 10
93.23013541036994
 20
229.12611195315486
 30
0.0
 11
90.259668275389316
 21
227.41111195315486
 31
0.0
  0
LINE
  8
001
 62
               3
  5
52
 10
93.23013541036994
 20
229.12611195315486
 30
0.0
 11
96.200602545350563
 21
227.41111195315486
 31
0.0
  0
LINE
  8
001
 62
               3
  5
53
 10
93.23013541036994
 20
222.26611195315485
 30
0.0
 11
90.259668275389316
 21
223.98111195315485
 31
0.0
  0
CIRCLE
  8
001
 62
               3
  5
54
 10
93.23013541036994
 20
225.69611195315485
 30
0.0
 40
6.5
  0
LINE
  8
001
 62
               3
  5
55
 10
90.259668275389316
 20
305.98111195315482
 30
0.0
 11
90.259668275389316
 21
309.41111195315483
 31
0.0
  0
LINE
  8
001
 62
               3
  5
56
 10
96.200602545350563
 20
309.41111195315489
 30
0.0
 11
96.200602545350563
 21
305.98111195315488
 31
0.0
  0
LINE
  8
001
 62
               3
  5
57
 10
96.200602545350563
 20
305.98111195315482
 30
0.0
 11
93.23013541036994
 21
304.26611195315485
 31
0.0
  0
LINE
  8
001
 62
               3
  5
58
 10
93.23013541036994
 20
311.12611195315486
 30
0.0
 11
90.259668275389316
 21
309.41111195315489
 31
0.0
  0
LINE
  8
001
 62
               3
  5
59
 10
93.23013541036994
 20
311.12611195315486
 30
0.0
 11
96.200602545350563
 21
309.41111195315489
 31
0.0
  0
LINE
  8
001
 62
               3
  5
5A
 10
93.23013541036994
 20
304.26611195315485
 30
0.0
 11
90.259668275389316
 21
305.98111195315482
 31
0.0
  0
CIRCLE
  8
001
 62
               3
  5
5B
 10
93.23013541036994
 20
307.69611195315485
 30
0.0
 40
6.5
  0
LINE
  8
001
 62
               3
  5
5C
 10
34.259668275389316
 20
305.98111195315482
 30
0.0
 11
34.259668275389316
 21
309.41111195315483
 31
0.0
  0
LINE
  8
001
 62
               3
  5
5D
 10
40.200602545350563
 20
309.41111195315489
 30
0.0
 11
40.200602545350563
 21
305.98111195315488
 31
0.0
  0
LINE
  8
001
 62
               3
  5
5E
 10
40.200602545350563
 20
305.98111195315482
 30
0.0
 11
37.23013541036994
 21
304.26611195315485
 31
0.0
  0
LINE
  8
001
 62
               3
  5
5F
 10
37.23013541036994
 20
311.12611195315486
 30
0.0
 11
34.259668275389316
 21
309.41111195315489
 31
0.0
  0
LINE
  8
001
 62
               3
  5
60
 10
37.23013541036994
 20
311.12611195315486
 30
0.0
 11
40.200602545350563
 21
309.41111195315489
 31
0.0
  0
LINE
  8
001
 62
               3
  5
61
 10
37.23013541036994
 20
304.26611195315485
 30
0.0
 11
34.259668275389316
 21
305.98111195315482
 31
0.0
  0
CIRCLE
  8
001
 62
               3
  5
62
 10
37.23013541036994
 20
307.69611195315485
 30
0.0
 40
6.5
  0
ARC
  8
001
 62
               3
  5
63
 10
112.73013541036994
 20
314.19611195315485
 30
0.0
 40
2.5
 50
0.0
 51
90.0
  0
ARC
  8
001
 62
               3
  5
64
 10
112.73013541036994
 20
219.19611195315485
 30
0.0
 40
2.5
 50
270.0
 51
0.0
  0
ARC
  8
001
 62
               3
  5
65
 10
17.73013541036994
 20
219.19611195315485
 30
0.0
 40
2.5
 50
180.0
 51
270.0
  0
ARC
  8
001
 62
               3
  5
66
 10
17.73013541036994
 20
314.19611195315485
 30
0.0
 40
2.5
 50
90.0
 51
180.0
  0
ARC
  8
001
 62
               3
  5
67
 10
174.95461244009857
 20
156.70554517786206
 30
0.0
 40
2.5
 50
90.0
 51
180.0
  0
ARC
  8
001
 62
               3
  5
68
 10
269.95461244009857
 20
156.70554517786206
 30
0.0
 40
2.5
 50
0.0
 51
90.0
  0
ARC
  8
001
 62
               3
  5
69
 10
271.45461244009857
 20
68.205545177862064
 30
0.0
 40
1.0
 50
0.0
 51
90.0
  0
LINE
  8
001
 62
               3
  5
6A
 10
248.10375947901269
 20
170.20554517786206
 30
0.0
 11
254.45461244009857
 21
159.20554517786206
 31
0.0
  0
LINE
  8
001
 62
               3
  5
6B
 10
269.95461244009857
 20
159.20554517786206
 30
0.0
 11
254.45461244009857
 21
159.20554517786206
 31
0.0
  0
LINE
  8
001
 62
               3
  5
6C
 10
196.80546540118445
 20
170.20554517786206
 30
0.0
 11
190.45461244009857
 21
159.20554517786206
 31
0.0
  0
LINE
  8
001
 62
               3
  5
6D
 10
190.45461244009857
 20
159.20554517786206
 30
0.0
 11
174.95461244009857
 21
159.20554517786206
 31
0.0
  0
LINE
  8
001
 62
               3
  5
6E
 10
196.80546540118445
 20
170.20554517786206
 30
0.0
 11
248.10375947901269
 21
170.20554517786206
 31
0.0
  0
LINE
  8
001
 62
               3
  5
6F
 10
247.45461244009857
 20
82.697734584279928
 30
0.0
 11
247.45461244009857
 21
72.205545177862064
 31
0.0
  0
ARC
  8
001
 62
               3
  5
70
 10
250.45461244009857
 20
72.205545177862064
 30
0.0
 40
3.0
 50
180.0
 51
270.0
  0
LINE
  8
001
 62
               3
  5
71
 10
259.45461244009857
 20
101.20554517786209
 30
0.0
 11
249.64592434566825
 21
88.944685059824181
 31
0.0
  0
ARC
  8
001
 62
               3
  5
72
 10
257.45461244009857
 20
82.697734584279928
 30
0.0
 40
10.0
 50
141.34019174590992
 51
180.0
  0
LINE
  8
001
 62
               3
  5
73
 10
259.45461244009857
 20
101.20554517786209
 30
0.0
 11
259.45461244009857
 21
123.20554517786206
 31
0.0
  0
LINE
  8
001
 62
               3
  5
74
 10
259.45461244009857
 20
125.20554517786206
 30
0.0
 11
259.45461244009857
 21
159.20554517786206
 31
0.0
  0
LINE
  8
001
 62
               3
  5
75
 10
194.45461244009857
 20
69.205545177862064
 30
0.0
 11
173.45461244009857
 21
69.205545177862064
 31
0.0
  0
ARC
  8
001
 62
               3
  5
76
 10
173.45461244009857
 20
68.205545177862064
 30
0.0
 40
1.0
 50
90.0
 51
180.0
  0
LINE
  8
001
 62
               3
  5
77
 10
197.45461244009857
 20
82.697734584279928
 30
0.0
 11
197.45461244009857
 21
72.205545177862064
 31
0.0
  0
ARC
  8
001
 62
               3
  5
78
 10
194.45461244009857
 20
72.205545177862064
 30
0.0
 40
3.0
 50
270.0
 51
0.0
  0
LINE
  8
001
 62
               3
  5
79
 10
185.45461244009857
 20
101.20554517786209
 30
0.0
 11
195.2633005345289
 21
88.944685059824181
 31
0.0
  0
ARC
  8
001
 62
               3
  5
7A
 10
187.45461244009857
 20
82.697734584279928
 30
0.0
 40
10.0
 50
0.0000000000000064
 51
38.65980825409008
  0
LINE
  8
001
 62
               3
  5
7B
 10
185.45461244009857
 20
101.20554517786209
 30
0.0
 11
185.45461244009857
 21
123.20554517786206
 31
0.0
  0
LINE
  8
001
 62
               3
  5
7C
 10
185.45461244009857
 20
125.20554517786206
 30
0.0
 11
185.45461244009857
 21
159.20554517786206
 31
0.0
  0
LINE
  8
001
 62
               3
  5
7D
 10
106.12821162172324
 20
170.20554517786206
 30
0.0
 11
115.23013541036994
 21
164.95054702834344
 31
0.0
  0
LINE
  8
001
 62
               3
  5
7E
 10
193.77149080496889
 20
164.95054702834344
 30
0.0
 11
251.13773407522825
 21
164.95054702834344
 31
0.0
  0
LINE
  8
001
 62
               3
  5
7F
 10
17.73013541036994
 20
159.20554517786206
 30
0.0
 11
112.73013541036994
 21
159.20554517786206
 31
0.0
  0
LINE
  8
001
 62
               3
  5
80
 10
24.332059199016633
 20
170.20554517786206
 30
0.0
 11
15.230135410369938
 21
164.95054702834344
 31
0.0
  0
LINE
  8
001
 62
               3
  5
81
 10
89.23013541036994
 20
69.205545177862064
 30
0.0
 11
114.23013541036994
 21
69.205545177862064
 31
0.0
  0
ARC
  8
001
 62
               3
  5
82
 10
114.23013541036994
 20
68.205545177862064
 30
0.0
 40
1.0
 50
0.0
 51
90.0
  0
LINE
  8
001
 62
               3
  5
83
 10
41.23013541036994
 20
69.205545177862064
 30
0.0
 11
16.23013541036994
 21
69.205545177862064
 31
0.0
  0
ARC
  8
001
 62
               3
  5
84
 10
16.23013541036994
 20
68.205545177862064
 30
0.0
 40
1.0
 50
90.0
 51
180.0
  0
LINE
  8
001
 62
               3
  5
85
 10
86.23013541036994
 20
84.059198289571725
 30
0.0
 11
86.23013541036994
 21
72.205545177862064
 31
0.0
  0
LINE
  8
001
 62
               3
  5
86
 10
106.12821162172324
 20
241.04696491424073
 30
0.0
 11
106.12821162172324
 21
292.34525899206898
 31
0.0
  0
LINE
  8
001
 62
               3
  5
87
 10
24.332059199016633
 20
241.04696491424073
 30
0.0
 11
24.332059199016633
 21
292.34525899206898
 31
0.0
  0
LINE
  8
001
 62
               3
  5
88
 10
24.332059199016641
 20
292.34525899206898
 30
0.0
 11
106.12821162172324
 21
292.34525899206898
 31
0.0
  0
LINE
  8
001
 62
               3
  5
89
 10
106.12821162172324
 20
241.04696491424073
 30
0.0
 11
24.332059199016641
 21
241.04696491424073
 31
0.0
  0
LINE
  8
001
 62
               3
  5
8A
 10
115.23013541036994
 20
298.69611195315485
 30
0.0
 11
15.23013541036994
 21
298.69611195315485
 31
0.0
  0
LINE
  8
001
 62
               3
  5
8B
 10
115.23013541036994
 20
234.69611195315485
 30
0.0
 11
15.23013541036994
 21
234.69611195315485
 31
0.0
  0
LINE
  8
001
 62
               3
  5
8C
 10
106.12821162172324
 20
292.34525899206898
 30
0.0
 11
115.23013541036994
 21
298.69611195315485
 31
0.0
  0
LINE
  8
001
 62
               3
  5
8D
 10
106.12821162172324
 20
241.04696491424073
 30
0.0
 11
115.23013541036994
 21
234.69611195315485
 31
0.0
  0
LINE
  8
001
 62
               3
  5
8E
 10
24.332059199016633
 20
292.34525899206898
 30
0.0
 11
15.23013541036994
 21
298.69611195315485
 31
0.0
  0
LINE
  8
001
 62
               3
  5
8F
 10
24.332059199016633
 20
241.04696491424073
 30
0.0
 11
15.23013541036994
 21
234.69611195315485
 31
0.0
  0
LINE
  8
001
 62
               3
  5
90
 10
114.23013541036994
 20
229.69611195315485
 30
0.0
 11
102.73013541036994
 21
229.69611195315485
 31
0.0
  0
LINE
  8
001
 62
               3
  5
91
 10
101.73013541036994
 20
217.69611195315485
 30
0.0
 11
101.73013541036994
 21
228.69611195315485
 31
0.0
  0
ARC
  8
001
 62
               3
  5
92
 10
102.73013541036994
 20
228.69611195315485
 30
0.0
 40
1.0
 50
90.0
 51
180.0
  0
ARC
  8
001
 62
               3
  5
93
 10
114.23013541036994
 20
230.69611195315485
 30
0.0
 40
1.0
 50
270.0
 51
0.0
  0
ARC
  8
001
 62
               3
  5
94
 10
100.73013541036994
 20
217.69611195315485
 30
0.0
 40
1.0
 50
270.0
 51
0.0
  0
LINE
  8
001
 62
               3
  5
95
 10
114.23013541036994
 20
303.69611195315485
 30
0.0
 11
102.73013541036994
 21
303.69611195315485
 31
0.0
  0
LINE
  8
001
 62
               3
  5
96
 10
101.73013541036994
 20
315.69611195315485
 30
0.0
 11
101.73013541036994
 21
304.69611195315485
 31
0.0
  0
ARC
  8
001
 62
               3
  5
97
 10
102.73013541036994
 20
304.69611195315485
 30
0.0
 40
1.0
 50
180.0
 51
270.0
  0
ARC
  8
001
 62
               3
  5
98
 10
114.23013541036994
 20
302.69611195315485
 30
0.0
 40
1.0
 50
0.0000000000000127
 51
90.000000000000014
  0
ARC
  8
001
 62
               3
  5
99
 10
100.73013541036994
 20
315.69611195315485
 30
0.0
 40
1.0
 50
0.0000000000000127
 51
90.000000000000014
  0
LINE
  8
001
 62
               3
  5
9A
 10
16.23013541036994
 20
303.69611195315485
 30
0.0
 11
27.73013541036994
 21
303.69611195315485
 31
0.0
  0
LINE
  8
001
 62
               3
  5
9B
 10
28.73013541036994
 20
315.69611195315485
 30
0.0
 11
28.73013541036994
 21
304.69611195315485
 31
0.0
  0
ARC
  8
001
 62
               3
  5
9C
 10
27.73013541036994
 20
304.69611195315485
 30
0.0
 40
1.0
 50
270.0
 51
0.0
  0
ARC
  8
001
 62
               3
  5
9D
 10
16.23013541036994
 20
302.69611195315485
 30
0.0
 40
1.0
 50
90.0
 51
180.0
  0
ARC
  8
001
 62
               3
  5
9E
 10
29.73013541036994
 20
315.69611195315485
 30
0.0
 40
1.0
 50
90.0
 51
180.0
  0
LINE
  8
001
 62
               3
  5
9F
 10
16.23013541036994
 20
229.69611195315485
 30
0.0
 11
27.73013541036994
 21
229.69611195315485
 31
0.0
  0
LINE
  8
001
 62
               3
  5
A0
 10
28.73013541036994
 20
217.69611195315485
 30
0.0
 11
28.73013541036994
 21
228.69611195315485
 31
0.0
  0
ARC
  8
001
 62
               3
  5
A1
 10
27.73013541036994
 20
228.69611195315485
 30
0.0
 40
1.0
 50
0.0000000000000127
 51
90.000000000000014
  0
ARC
  8
001
 62
               3
  5
A2
 10
16.23013541036994
 20
230.69611195315485
 30
0.0
 40
1.0
 50
180.0
 51
270.0
  0
ARC
  8
001
 62
               3
  5
A3
 10
29.73013541036994
 20
217.69611195315485
 30
0.0
 40
1.0
 50
180.0
 51
270.0
  0
ARC
  8
001
 62
               3
  5
A4
 10
99.73013541036994
 20
157.20554517786206
 30
0.0
 40
2.0
 50
0.0
 51
90.0
  0
ARC
  8
001
 62
               3
  5
A5
 10
30.73013541036994
 20
157.20554517786206
 30
0.0
 40
2.0
 50
90.0
 51
180.0
  0
ARC
  8
001
 62
               3
  5
A6
 10
112.73013541036994
 20
156.70554517786206
 30
0.0
 40
2.5
 50
0.0
 51
90.0
  0
ARC
  8
001
 62
               3
  5
A7
 10
17.73013541036994
 20
156.70554517786206
 30
0.0
 40
2.5
 50
90.0
 51
180.0
  0
LINE
  8
001
 62
               3
  5
A8
 10
87.110920358618884
 20
88.162845062859702
 30
0.0
 11
99.73013541036994
 21
116.20554517786206
 31
0.0
  0
ARC
  8
001
 62
               3
  5
A9
 10
89.23013541036994
 20
72.205545177862064
 30
0.0
 40
3.0
 50
180.0
 51
270.0
  0
ARC
  8
001
 62
               3
  5
AA
 10
96.23013541036994
 20
84.059198289571725
 30
0.0
 40
10.0
 50
155.77225468204585
 51
180.0
  0
LINE
  8
001
 62
               3
  5
AB
 10
44.23013541036994
 20
84.059198289571725
 30
0.0
 11
44.23013541036994
 21
72.205545177862064
 31
0.0
  0
LINE
  8
001
 62
               3
  5
AC
 10
43.349350462120995
 20
88.162845062859702
 30
0.0
 11
30.730135410369932
 21
116.20554517786206
 31
0.0
  0
ARC
  8
001
 62
               3
  5
AD
 10
41.23013541036994
 20
72.205545177862064
 30
0.0
 40
3.0
 50
270.0
 51
0.0
  0
ARC
  8
001
 62
               3
  5
AE
 10
34.23013541036994
 20
84.059198289571725
 30
0.0
 40
10.0
 50
0.0000000000000095
 51
24.227745317954167
  0
LINE
  8
001
 62
               3
  5
AF
 10
28.73013541036994
 20
131.24709934849011
 30
0.0
 11
28.73013541036994
 21
157.20554517786206
 31
0.0
  0
LINE
  8
001
 62
               3
  5
B0
 10
99.73013541036994
 20
116.20554517786206
 30
0.0
 11
100.66089029388711
 21
123.20554517786206
 31
0.0
  0
LINE
  8
001
 62
               3
  5
B1
 10
101.73013541036994
 20
131.24709934849011
 30
0.0
 11
100.92682026060629
 21
125.20554517786206
 31
0.0
  0
LINE
  8
001
 62
               3
  5
B2
 10
101.73013541036994
 20
131.24709934849011
 30
0.0
 11
101.73013541036994
 21
157.20554517786206
 31
0.0
  0
LINE
  8
001
 62
               3
  5
B3
 10
30.73013541036994
 20
116.20554517786206
 30
0.0
 11
29.799380526852779
 21
123.20554517786206
 31
0.0
  0
LINE
  8
001
 62
               3
  5
B4
 10
28.73013541036994
 20
131.24709934849011
 30
0.0
 11
29.533450560133588
 21
125.20554517786206
 31
0.0
  0
LINE
  8
001
  6
CENTER
  5
B5
 10
98.98013541036994
 20
226.69611195315485
 30
0.0
 11
111.48013541036994
 21
226.69611195315485
 31
0.0
  0
LINE
  8
001
  6
CENTER
  5
B6
 10
105.23013541036994
 20
220.44611195315485
 30
0.0
 11
105.23013541036994
 21
232.94611195315485
 31
0.0
  0
LINE
  8
001
  6
CENTER
  5
B7
 10
18.98013541036994
 20
226.69611195315485
 30
0.0
 11
31.48013541036994
 21
226.69611195315485
 31
0.0
  0
LINE
  8
001
  6
CENTER
  5
B8
 10
25.23013541036994
 20
220.44611195315485
 30
0.0
 11
25.23013541036994
 21
232.94611195315485
 31
0.0
  0
LINE
  8
001
  6
CENTER
  5
B9
 10
18.98013541036994
 20
306.69611195315485
 30
0.0
 11
31.48013541036994
 21
306.69611195315485
 31
0.0
  0
LINE
  8
001
  6
CENTER
  5
BA
 10
25.23013541036994
 20
300.44611195315485
 30
0.0
 11
25.23013541036994
 21
312.94611195315485
 31
0.0
  0
LINE
  8
001
  6
CENTER
  5
BB
 10
98.98013541036994
 20
306.69611195315485
 30
0.0
 11
111.48013541036994
 21
306.69611195315485
 31
0.0
  0
LINE
  8
001
  6
CENTER
  5
BC
 10
105.23013541036994
 20
300.44611195315485
 30
0.0
 11
105.23013541036994
 21
312.94611195315485
 31
0.0
  0
ARC
  8
001
 62
               3
  5
BD
 10
105.23013541036994
 20
306.69611195315485
 30
0.0
 40
4.25
 50
315.09912784402729
 51
145.43967822000249
  0
ARC
  8
001
 62
               3
  5
BE
 10
25.23013541036994
 20
306.69611195315485
 30
0.0
 40
4.25
 50
34.560321779997508
 51
224.90087215597268
  0
ARC
  8
001
 62
               3
  5
BF
 10
25.23013541036994
 20
226.69611195315485
 30
0.0
 40
4.25
 50
135.09912784402729
 51
325.43967822000218
  0
ARC
  8
001
 62
               3
  5
C0
 10
105.23013541036994
 20
226.69611195315485
 30
0.0
 40
4.25
 50
214.56032177999785
 51
44.900872155972714
  0
LINE
  8
001
 62
               3
  5
C1
 10
99.73013541036994
 20
160.00554517786207
 30
0.0
 11
99.730135410369826
 21
166.40554517786211
 31
0.0
  0
LINE
  8
001
 62
               3
  5
C2
 10
86.73013541036994
 20
160.00554517786207
 30
0.0
 11
86.730135410370053
 21
166.40554517786211
 31
0.0
  0
LINE
  8
001
 62
               3
  5
C3
 10
87.530135410369894
 20
167.20554517786201
 30
0.0
 11
98.930135410369985
 21
167.20554517786201
 31
0.0
  0
ARC
  8
001
 62
               3
  5
C4
 10
98.930135410369985
 20
166.40554517786211
 30
0.0
 40
0.8
 50
0.0
 51
90.0
  0
ARC
  8
001
 62
               3
  5
C5
 10
87.530135410369894
 20
166.40554517786211
 30
0.0
 40
0.8
 50
90.0
 51
180.0
  0
ARC
  8
001
 62
               3
  5
C6
 10
87.530135410370008
 20
160.00554517786207
 30
0.0
 40
0.8
 50
180.0
 51
270.0
  0
ARC
  8
001
 62
               3
  5
C7
 10
98.930135410369985
 20
160.00554517786207
 30
0.0
 40
0.8
 50
270.0
 51
0.0
  0
LINE
  8
001
 62
               3
  5
C8
 10
30.73013541036994
 20
160.00554517786207
 30
0.0
 11
30.730135410370053
 21
166.40554517786211
 31
0.0
  0
LINE
  8
001
 62
               3
  5
C9
 10
43.73013541036994
 20
160.00554517786207
 30
0.0
 11
43.730135410369826
 21
166.40554517786211
 31
0.0
  0
LINE
  8
001
 62
               3
  5
CA
 10
42.930135410369985
 20
167.20554517786201
 30
0.0
 11
31.530135410369894
 21
167.20554517786201
 31
0.0
  0
ARC
  8
001
 62
               3
  5
CB
 10
31.530135410369894
 20
166.40554517786211
 30
0.0
 40
0.8
 50
90.0
 51
180.0
  0
ARC
  8
001
 62
               3
  5
CC
 10
42.930135410369985
 20
166.40554517786211
 30
0.0
 40
0.8
 50
0.0000000000000127
 51
90.000000000000014
  0
ARC
  8
001
 62
               3
  5
CD
 10
42.930135410369871
 20
160.00554517786207
 30
0.0
 40
0.8
 50
270.0
 51
0.0
  0
ARC
  8
001
 62
               3
  5
CE
 10
31.530135410369894
 20
160.00554517786207
 30
0.0
 40
0.8
 50
180.0
 51
270.0
  0
LINE
  8
001
 62
               3
  5
CF
 10
269.95461244009857
 20
160.00554517786207
 30
0.0
 11
269.95461244009846
 21
166.40554517786211
 31
0.0
  0
LINE
  8
001
 62
               3
  5
D0
 10
256.95461244009857
 20
160.00554517786207
 30
0.0
 11
256.95461244009869
 21
166.40554517786211
 31
0.0
  0
LINE
  8
001
 62
               3
  5
D1
 10
257.75461244009853
 20
167.20554517786201
 30
0.0
 11
269.15461244009862
 21
167.20554517786201
 31
0.0
  0
ARC
  8
001
 62
               3
  5
D2
 10
269.15461244009862
 20
166.40554517786211
 30
0.0
 40
0.8
 50
0.0
 51
90.0
  0
ARC
  8
001
 62
               3
  5
D3
 10
257.75461244009853
 20
166.40554517786211
 30
0.0
 40
0.8
 50
90.0
 51
180.0
  0
ARC
  8
001
 62
               3
  5
D4
 10
257.75461244009864
 20
160.00554517786207
 30
0.0
 40
0.8
 50
180.0
 51
270.0
  0
ARC
  8
001
 62
               3
  5
D5
 10
269.15461244009862
 20
160.00554517786207
 30
0.0
 40
0.8
 50
270.0
 51
0.0
  0
LINE
  8
001
 62
               3
  5
D6
 10
174.95461244009857
 20
160.00554517786207
 30
0.0
 11
174.95461244009869
 21
166.40554517786211
 31
0.0
  0
LINE
  8
001
 62
               3
  5
D7
 10
187.95461244009857
 20
160.00554517786207
 30
0.0
 11
187.95461244009846
 21
166.40554517786211
 31
0.0
  0
LINE
  8
001
 62
               3
  5
D8
 10
187.15461244009862
 20
167.20554517786201
 30
0.0
 11
175.75461244009853
 21
167.20554517786201
 31
0.0
  0
ARC
  8
001
 62
               3
  5
D9
 10
175.75461244009853
 20
166.40554517786211
 30
0.0
 40
0.8
 50
90.0
 51
180.0
  0
ARC
  8
001
 62
               3
  5
DA
 10
187.15461244009862
 20
166.40554517786211
 30
0.0
 40
0.8
 50
0.0000000000000127
 51
90.000000000000014
  0
ARC
  8
001
 62
               3
  5
DB
 10
187.1546124400985
 20
160.00554517786207
 30
0.0
 40
0.8
 50
270.0
 51
0.0
  0
ARC
  8
001
 62
               3
  5
DC
 10
175.75461244009853
 20
160.00554517786207
 30
0.0
 40
0.8
 50
180.0
 51
270.0
  0
LINE
  8
001
  6
CENTER
  5
DD
 10
105.23013541036994
 20
50.224862704169226
 30
0.0
 11
105.23013541036994
 21
73.632694561515848
 31
0.0
  0
LINE
  8
001
  6
CENTER
  5
DE
 10
25.23013541036994
 20
50.224862704169226
 30
0.0
 11
25.23013541036994
 21
73.632694561515848
 31
0.0
  0
LINE
  8
001
  6
CENTER
  5
DF
 10
262.45461244009857
 20
50.224862704169226
 30
0.0
 11
262.45461244009857
 21
73.632694561515848
 31
0.0
  0
LINE
  8
001
  6
CENTER
  5
E0
 10
182.45461244009857
 20
50.224862704169226
 30
0.0
 11
182.45461244009857
 21
73.632694561515848
 31
0.0
  0
TEXT
  8
001
  5
E1
 10
202.89852699107888
 20
21.967303466721496
 30
0.0
 40
10.0
  1
LC-68
 41
0.5
  0
TEXT
  8
001
  5
E2
 10
202.89852699107888
 20
9.4673034667214964
 30
0.0
 40
10.0
  1
(2005/02/28)
 41
0.5538461708875745
  0
ENDSEC
  0
EOF
