  0
SECTION
  2
HEADER
  9
$EXTMIN
 10
            0.0000000000000000
 20
            0.0000000000000000
  9
$EXTMAX
 10
          594.0000000000000000
 20
          420.0000000000000000
  9
$LIMMIN
 10
            0.0000000000000000
 20
            0.0000000000000000
  9
$LIMMAX
 10
          594.0000000000000000
 20
          420.0000000000000000
  0
ENDSEC
  0
SECTION
  2
TABLES
  0
TABLE
  2
LTYPE
 70
     4
  0
LTYPE
  2
CONTINUOUS
 70
    64
  3
CONTINUOUS
 72
    65
 73
     0
 40
            0.0000000000000000
  0
LTYPE
  2
DASHED
 70
    64
  3
DASHED
 72
    65
 73
     2
 40
            3.0000000000000000
 49
            2.0000000000000000
 49
           -1.0000000000000000
  0
LTYPE
  2
CENTER
 70
    64
  3
CENTER
 72
    65
 73
     4
 40
           12.0000000000000000
 49
            9.0000000000000000
 49
           -1.0000000000000000
 49
            1.0000000000000000
 49
           -1.0000000000000000
  0
LTYPE
  2
PHANTOM
 70
    64
  3
PHANTOM
 72
    65
 73
     6
 40
           20.0000000000000000
 49
           15.0000000000000000
 49
           -1.0000000000000000
 49
            1.0000000000000000
 49
           -1.0000000000000000
 49
            1.0000000000000000
 49
           -1.0000000000000000
  0
ENDTAB
  0
TABLE
  2
LAYER
 70
     1
  0
LAYER
  2
1
 70
    64
 62
     7
  6
CONTINUOUS
  0
ENDTAB
  0
TABLE
  2
STYLE
 70
     1
  0
STYLE
  2
STANDARD
 70
    64
 40
            0.0000000000000000
 41
            1.0000000000000000
 50
            0.0000000000000000
 71
     0
 42
            0.2500000000000000
  3
TXT
  4
BIGFONT
  0
ENDTAB
  0
ENDSEC
  0
SECTION
  2
BLOCKS
  0
ENDSEC
  0
SECTION
  2
ENTITIES
  0
LINE
  8
1
  6
CENTER
 62
     1
 10
          125.3962097167968466
 20
          126.3773651123046875
 11
          263.8113098144531250
 21
          126.3773651123046875
  0
LINE
  8
1
 62
     3
 10
          129.0943298339843750
 20
           56.3773651123047017
 11
          129.0943298339843750
 21
          125.3773651123046875
  0
LINE
  8
1
 62
     3
 10
          131.5943298339843750
 20
          165.3773651123046875
 11
          256.5943298339843750
 21
          165.3773651123046875
  0
LINE
  8
1
 62
     3
 10
          145.6302282188466108
 20
          176.3773651123046875
 11
          242.7954278312861334
 21
          176.3773651123046875
  0
LINE
  8
1
 62
     3
 10
          129.0943298339843750
 20
           56.3773651123047017
 11
          189.0943298339843750
 21
           56.3773651123047017
  0
LINE
  8
1
 62
     3
 10
          130.0943298339843750
 20
           74.3773651123046875
 11
          153.5943298339843750
 21
           74.3773651123046875
  0
LINE
  8
1
 62
     3
 10
          189.0943298339843750
 20
           62.3773651123046875
 11
          199.0943298339843750
 21
           62.3773651123046875
  0
LINE
  8
1
 62
     3
 10
          259.0943298339843750
 20
           56.3773651123047017
 11
          259.0943298339843750
 21
          125.3773651123046875
  0
LINE
  8
1
 62
     3
 10
          129.0943298339843750
 20
           56.3773651123047017
 11
          189.0943298339843750
 21
           56.3773651123047017
  0
LINE
  8
1
 62
     3
 10
          189.0943298339843750
 20
           56.3773651123047017
 11
          189.0943298339843750
 21
           62.3773651123046875
  0
LINE
  8
1
 62
     3
 10
          199.0943298339843750
 20
           56.3773651123047017
 11
          199.0943298339843750
 21
           62.3773651123046875
  0
LINE
  8
1
 62
     3
 10
          199.0943298339843750
 20
           56.3773651123047017
 11
          259.0943298339843750
 21
           56.3773651123047017
  0
LINE
  8
1
 62
     3
 10
          199.0943298339843750
 20
           56.3773651123047017
 11
          259.0943298339843750
 21
           56.3773651123047017
  0
LINE
  8
1
  6
CENTER
 62
     1
 10
          369.5471496582030682
 20
          126.3773651123046875
 11
          492.1132202148436363
 21
          126.3773651123046875
  0
LINE
  8
1
 62
     3
 10
          144.6302282188466108
 20
          176.1094159198735554
 11
          130.0943298339843750
 21
          167.7171110744603197
  0
LINE
  8
1
 62
     3
 10
          145.0943298339843750
 20
          122.7546512263388934
 11
          145.0943298339843750
 21
          125.3773651123046875
  0
LINE
  8
1
 62
     3
 10
          243.0943298339843750
 20
          122.7546512263388934
 11
          243.0943298339843750
 21
          125.3773651123046875
  0
LINE
  8
1
 62
     3
 10
          232.0943298339843750
 20
           76.8773651123046875
 11
          232.0943298339843750
 21
           90.3773651123046875
  0
LINE
  8
1
 62
     3
 10
          156.0943298339843750
 20
           76.8773651123046875
 11
          156.0943298339843750
 21
           90.3773651123046875
  0
LINE
  8
1
 62
     3
 10
          145.5549078701344001
 20
          120.0793724649727778
 11
          156.0943298339843750
 21
           90.3773651123046875
  0
LINE
  8
1
 62
     3
 10
          232.0943298339843750
 20
           90.3773651123046875
 11
          242.6337517978343499
 21
          120.0793724649727778
  0
LINE
  8
1
 62
     3
 10
          129.0943298339843750
 20
          127.3773651123046875
 11
          259.0943298339843750
 21
          127.3773651123046875
  0
LINE
  8
1
 62
     3
 10
          129.0943298339843750
 20
          125.3773651123046875
 11
          259.0943298339843750
 21
          125.3773651123046875
  0
LINE
  8
1
 62
     3
 10
          129.0943298339843750
 20
          127.3773651123046875
 11
          129.0943298339843750
 21
          165.9850602668914519
  0
LINE
  8
1
 62
     3
 10
          145.0943298339843750
 20
          127.3773651123046875
 11
          145.0943298339843750
 21
          162.8773651123046875
  0
LINE
  8
1
 62
     3
 10
          243.0943298339843750
 20
          127.3773651123046875
 11
          243.0943298339843750
 21
          162.8773651123046875
  0
LINE
  8
1
 62
     3
 10
          259.0943298339843750
 20
          127.3773651123046875
 11
          259.0943298339843750
 21
          166.0627003919485674
  0
LINE
  8
1
 62
     3
 10
          259.0943298339843750
 20
          246.0660552978515625
 11
          259.0943298339843750
 21
          351.0660552978515625
  0
LINE
  8
1
  6
CENTER
 62
     1
 10
          124.7411041259765625
 20
          298.5660552978515625
 11
          264.7429809570312500
 21
          298.5660552978515625
  0
LINE
  8
1
 62
     3
 10
          131.5943298339843750
 20
          243.5660552978515625
 11
          256.5943298339843750
 21
          243.5660552978515625
  0
LINE
  8
1
 62
     3
 10
          131.5943298339843466
 20
          353.5660552978515625
 11
          256.5943298339843750
 21
          353.5660552978515625
  0
LINE
  8
1
 62
     3
 10
          129.0943298339843750
 20
          246.0660552978515625
 11
          129.0943298339843466
 21
          351.0660552978515625
  0
LINE
  8
1
 62
     3
 10
          131.5943298339843466
 20
          339.5660552978515625
 11
          142.5943298339843750
 21
          339.5660552978515625
  0
LINE
  8
1
 62
     3
 10
          131.5943298339843750
 20
          257.5660552978515625
 11
          142.5943298339843750
 21
          257.5660552978515625
  0
LINE
  8
1
 62
     3
 10
          243.0943298339843750
 20
          246.0660552978515625
 11
          243.0943298339843750
 21
          255.0660552978515625
  0
LINE
  8
1
 62
     3
 10
          145.0943298339843750
 20
          246.0660552978515625
 11
          145.0943298339843750
 21
          255.0660552978515625
  0
LINE
  8
1
 62
     3
 10
          145.0943298339843750
 20
          267.9160552978515852
 11
          243.0943298339843750
 21
          267.9160552978515852
  0
LINE
  8
1
 62
     3
 10
          145.0943298339843750
 20
          329.2160552978515398
 11
          243.0943298339843750
 21
          329.2160552978515398
  0
LINE
  8
1
 62
     3
 10
          129.0943298339843466
 20
          335.5660552978515625
 11
          259.0943298339843750
 21
          335.5660552978515625
  0
LINE
  8
1
 62
     3
 10
          129.0943298339843466
 20
          261.5660552978515625
 11
          259.0943298339843750
 21
          261.5660552978515625
  0
LINE
  8
1
 62
     3
 10
          145.0943298339843750
 20
          267.9160552978515852
 11
          145.0943298339843750
 21
          329.2160552978515398
  0
LINE
  8
1
 62
     3
 10
          243.0943298339843750
 20
          267.9160552978515852
 11
          243.0943298339843750
 21
          329.2160552978515398
  0
LINE
  8
1
 62
     3
 10
          145.0943298339843750
 20
          342.0660552978515625
 11
          145.0943298339843750
 21
          351.0660552978515625
  0
LINE
  8
1
 62
     3
 10
          243.0943298339843750
 20
          342.0660552978515625
 11
          243.0943298339843750
 21
          351.0660552978515625
  0
LINE
  8
1
 62
     3
 10
          245.5943298339843750
 20
          339.5660552978515625
 11
          256.5943298339843750
 21
          339.5660552978515625
  0
LINE
  8
1
 62
     3
 10
          245.5943298339843750
 20
          257.5660552978515625
 11
          256.5943298339843750
 21
          257.5660552978515625
  0
LINE
  8
1
 62
     3
 10
          129.0943298339843466
 20
          335.5660552978515625
 11
          145.0943298339843750
 21
          329.2160552978515398
  0
LINE
  8
1
 62
     3
 10
          243.0943298339843750
 20
          329.2160552978515398
 11
          259.0943298339843750
 21
          335.5660552978515625
  0
LINE
  8
1
 62
     3
 10
          129.0943298339843466
 20
          261.5660552978515625
 11
          145.0943298339843750
 21
          267.9160552978515852
  0
LINE
  8
1
 62
     3
 10
          243.0943298339843750
 20
          267.9160552978515852
 11
          259.0943298339843750
 21
          261.5660552978515625
  0
LINE
  8
1
 62
     3
 10
          469.2452697753906250
 20
          108.4692758151032592
 11
          469.2452697753906250
 21
          125.3773651123046875
  0
LINE
  8
1
 62
     3
 10
          373.2452697753906250
 20
           56.3773651123047017
 11
          423.2452697753906250
 21
           56.3773651123047017
  0
LINE
  8
1
 62
     3
 10
          375.7452697753906250
 20
          165.3773651123046875
 11
          390.6670665451151763
 21
          165.3773651123046875
  0
LINE
  8
1
 62
     3
 10
          398.7499703137698930
 20
          176.3773651123046875
 11
          457.7405692370113570
 21
          176.3773651123046875
  0
LINE
  8
1
  6
CENTER
 62
     1
 10
          428.2452697753906250
 20
           56.3773651123047017
 11
          428.2452697753906250
 21
          182.2641601562500000
  0
LINE
  8
1
 62
     3
 10
          397.0179195062009967
 20
          175.3773651123046875
 11
          391.5330919488995960
 21
          165.8773651123046875
  0
LINE
  8
1
 62
     3
 10
          374.2452697753906250
 20
           74.3773651123047159
 11
          396.7452697753906250
 21
           74.3773651123046875
  0
LINE
  8
1
 62
     3
 10
          459.7452697753906250
 20
           74.3773651123047017
 11
          482.2452697753906250
 21
           74.3773651123047017
  0
LINE
  8
1
 62
     3
 10
          373.2452697753906250
 20
           56.3773651123047017
 11
          373.2452697753906250
 21
          125.3773651123046875
  0
LINE
  8
1
 62
     3
 10
          483.2452697753906250
 20
           56.3773651123047017
 11
          483.2452697753906250
 21
          125.3773651123046875
  0
LINE
  8
1
 62
     3
 10
          399.2452697753906250
 20
           76.8773651123046875
 11
          399.2452697753906250
 21
           89.4366196585121429
  0
LINE
  8
1
 62
     3
 10
          457.2452697753906250
 20
           76.8773651123047017
 11
          457.2452697753906250
 21
           89.4366196585121429
  0
LINE
  8
1
 62
     3
 10
          387.9471364460337099
 20
          106.5409129860436508
 11
          396.9057142065803987
 21
           95.8644957553775328
  0
LINE
  8
1
 62
     3
 10
          468.5434031047475401
 20
          106.5409129860436508
 11
          459.5848253442008513
 21
           95.8644957553775328
  0
LINE
  8
1
 62
     3
 10
          387.2452697753906250
 20
          108.4692758151032592
 11
          387.2452697753906250
 21
          125.3773651123046875
  0
LINE
  8
1
 62
     3
 10
          459.4726200445802533
 20
          175.3773651123046875
 11
          464.9574476018816540
 21
          165.8773651123046875
  0
LINE
  8
1
 62
     3
 10
          423.2452697753906250
 20
           56.3773651123047017
 11
          423.2452697753906250
 21
           62.3773651123047159
  0
LINE
  8
1
 62
     3
 10
          433.2452697753906250
 20
           56.3773651123046875
 11
          433.2452697753906250
 21
           62.3773651123047159
  0
LINE
  8
1
 62
     3
 10
          423.2452697753906250
 20
           62.3773651123047159
 11
          433.2452697753906250
 21
           62.3773651123047159
  0
LINE
  8
1
 62
     3
 10
          433.2452697753906250
 20
           56.3773651123046875
 11
          483.2452697753906250
 21
           56.3773651123047017
  0
LINE
  8
1
 62
     3
 10
          465.6138916015625000
 20
          165.3773651123046875
 11
          480.7452697753906250
 21
          165.3773651123046875
  0
LINE
  8
1
 62
     3
 10
          243.3801712407316131
 20
          176.2899746242307515
 11
          258.0943298339843750
 21
          167.7947511995174352
  0
LINE
  8
1
 62
     3
 10
          394.5953979492187500
 20
          167.5849151611328125
 11
          462.0018615722656250
 21
          167.5849151611328125
  0
LINE
  8
1
 62
     3
 10
          373.2452697753906250
 20
          125.3773651123046875
 11
          391.2587857575767885
 21
          125.3773651123046875
  0
LINE
  8
1
 62
     3
 10
          373.2452697753906250
 20
          127.3773651123046875
 11
          391.2587857575767885
 21
          127.3773651123046875
  0
LINE
  8
1
 62
     3
 10
          373.2452697753906250
 20
          127.3773651123046875
 11
          373.2452697753906250
 21
          162.8773651123046875
  0
LINE
  8
1
 62
     3
 10
          387.2452697753906250
 20
          127.3773651123046875
 11
          387.2452697753906250
 21
          162.8773651123046875
  0
LINE
  8
1
 62
     3
 10
          469.2452697753906250
 20
          127.3773651123046875
 11
          469.2452697753906250
 21
          162.8773651123046875
  0
LINE
  8
1
 62
     3
 10
          483.2452697753906250
 20
          127.3773651123046875
 11
          483.2452697753906250
 21
          162.8773651123046875
  0
LINE
  8
1
 62
     3
 10
          465.2317537932044615
 20
          127.3773651123046875
 11
          483.2452697753906250
 21
          127.3773651123046875
  0
LINE
  8
1
 62
     3
 10
          465.2317537932044615
 20
          125.3773651123046875
 11
          483.2452697753906250
 21
          125.3773651123046875
  0
LINE
  8
1
  6
CENTER
 62
     1
 10
          242.5943298339843750
 20
          343.5660552978515625
 11
          255.5943298339843750
 21
          343.5660552978515625
  0
LINE
  8
1
  6
CENTER
 62
     1
 10
          249.0943298339843750
 20
          337.0660552978515625
 11
          249.0943298339843750
 21
          350.0660552978515625
  0
LINE
  8
1
  6
CENTER
 62
     1
 10
          242.5943298339843750
 20
          253.5660552978515625
 11
          255.5943298339843750
 21
          253.5660552978515625
  0
LINE
  8
1
  6
CENTER
 62
     1
 10
          249.0943298339843750
 20
          247.0660552978515625
 11
          249.0943298339843750
 21
          260.0660552978515625
  0
LINE
  8
1
  6
CENTER
 62
     1
 10
          132.5943298339843750
 20
          253.5660552978515625
 11
          145.5943298339843750
 21
          253.5660552978515625
  0
LINE
  8
1
  6
CENTER
 62
     1
 10
          139.0943298339843750
 20
          247.0660552978515625
 11
          139.0943298339843750
 21
          260.0660552978515625
  0
LINE
  8
1
  6
CENTER
 62
     1
 10
          132.5943298339843750
 20
          343.5660552978515625
 11
          145.5943298339843750
 21
          343.5660552978515625
  0
LINE
  8
1
  6
CENTER
 62
     1
 10
          139.0943298339843750
 20
          337.0660552978515625
 11
          139.0943298339843750
 21
          350.0660552978515625
  0
LINE
  8
1
 62
     3
 10
          228.4603348339843478
 20
          173.3773651123046875
 11
          227.5943298339843750
 21
          172.8773651123046875
  0
LINE
  8
1
 62
     3
 10
          239.7283288339843921
 20
          173.3773651123046875
 11
          228.4603348339843478
 21
          173.3773651123046875
  0
LINE
  8
1
 62
     3
 10
          227.5943408339843472
 20
          165.3773651123046875
 11
          227.5943298339843750
 21
          172.8773651123046875
  0
LINE
  8
1
 62
     3
 10
          240.5943298339843750
 20
          172.8773651123046875
 11
          239.7283288339843921
 21
          173.3773651123046875
  0
LINE
  8
1
 62
     3
 10
          227.5943298339843750
 20
          172.8773651123046875
 11
          240.5943298339843750
 21
          172.8773651123046875
  0
LINE
  8
1
 62
     3
 10
          240.5943298339843750
 20
          165.3773651123046875
 11
          240.5943298339843750
 21
          172.8773651123046875
  0
LINE
  8
1
 62
     3
 10
          148.4603348339843762
 20
          173.3773651123046875
 11
          147.5943298339844034
 21
          172.8773651123046875
  0
LINE
  8
1
 62
     3
 10
          159.7283288339844205
 20
          173.3773651123046875
 11
          148.4603348339843762
 21
          173.3773651123046875
  0
LINE
  8
1
 62
     3
 10
          147.5943408339843756
 20
          165.3773651123046875
 11
          147.5943298339844034
 21
          172.8773651123046875
  0
LINE
  8
1
 62
     3
 10
          160.5943298339844034
 20
          172.8773651123046875
 11
          159.7283288339844205
 21
          173.3773651123046875
  0
LINE
  8
1
 62
     3
 10
          147.5943298339844034
 20
          172.8773651123046875
 11
          160.5943298339844034
 21
          172.8773651123046875
  0
LINE
  8
1
 62
     3
 10
          160.5943298339844034
 20
          165.3773651123046875
 11
          160.5943298339844034
 21
          172.8773651123046875
  0
LINE
  8
1
 62
     3
 10
          376.6112747753905978
 20
          173.3773651123046875
 11
          375.7452697753906250
 21
          172.8773651123046875
  0
LINE
  8
1
 62
     3
 10
          387.8792687753906421
 20
          173.3773651123046875
 11
          376.6112747753905978
 21
          173.3773651123046875
  0
LINE
  8
1
 62
     3
 10
          375.7452807753905972
 20
          165.3773651123046875
 11
          375.7452697753906250
 21
          172.8773651123046875
  0
LINE
  8
1
 62
     3
 10
          388.7452697753906250
 20
          172.8773651123046875
 11
          387.8792687753906421
 21
          173.3773651123046875
  0
LINE
  8
1
 62
     3
 10
          375.7452697753906250
 20
          172.8773651123046875
 11
          388.7452697753906250
 21
          172.8773651123046875
  0
LINE
  8
1
 62
     3
 10
          388.7452697753906250
 20
          165.3773651123046875
 11
          388.7452697753906250
 21
          172.8773651123046875
  0
LINE
  8
1
 62
     3
 10
          468.6112747753905978
 20
          173.3773651123046875
 11
          467.7452697753906250
 21
          172.8773651123046875
  0
LINE
  8
1
 62
     3
 10
          479.8792687753906421
 20
          173.3773651123046875
 11
          468.6112747753905978
 21
          173.3773651123046875
  0
LINE
  8
1
 62
     3
 10
          467.7452807753905972
 20
          165.3773651123046875
 11
          467.7452697753906250
 21
          172.8773651123046875
  0
LINE
  8
1
 62
     3
 10
          480.7452697753906250
 20
          172.8773651123046875
 11
          479.8792687753906421
 21
          173.3773651123046875
  0
LINE
  8
1
 62
     3
 10
          467.7452697753906250
 20
          172.8773651123046875
 11
          480.7452697753906250
 21
          172.8773651123046875
  0
LINE
  8
1
 62
     3
 10
          480.7452697753906250
 20
          165.3773651123046875
 11
          480.7452697753906250
 21
          172.8773651123046875
  0
LINE
  8
1
  6
CENTER
 62
     1
 10
          383.2452697753906818
 20
           48.6037750244140625
 11
          383.2452697753906818
 21
           81.8867950439453125
  0
LINE
  8
1
  6
CENTER
 62
     1
 10
          473.2452697753906250
 20
           48.6037750244140625
 11
          473.2452697753906250
 21
           81.8867950439453125
  0
LINE
  8
1
  6
CENTER
 62
     1
 10
          249.0943298339843750
 20
           48.6037750244140625
 11
          249.0943298339843750
 21
           81.8867950439453125
  0
LINE
  8
1
  6
CENTER
 62
     1
 10
          139.0943298339843750
 20
           48.6037750244140625
 11
          139.0943298339843750
 21
           81.8867950439453125
  0
LINE
  8
1
 62
     3
 10
          234.5943298339843750
 20
           74.3773651123046875
 11
          258.0943298339843750
 21
           74.3773651123046875
  0
ARC
  8
1
 62
     3
 10
          145.7642028150621911
 20
          173.8773651123046875
 40
            2.5000000000000000
 50
           90.0000000000000000
 51
          119.9999999999998863
  0
ARC
  8
1
 62
     3
 10
          145.7642028150621911
 20
          173.8773651123046875
 40
            2.5000000000000000
 50
           90.0000000000000000
 51
          119.9999999999998863
  0
ARC
  8
1
 62
     3
 10
          147.5943298339843750
 20
          162.8773651123046875
 40
            2.5000000000000000
 50
           90.0000000000000000
 51
          180.0000000000000000
  0
ARC
  8
1
 62
     3
 10
          240.5943298339843750
 20
          162.8773651123046875
 40
            2.5000000000000000
 50
            0.0000000000000000
 51
           90.0000000000000000
  0
ARC
  8
1
 62
     3
 10
          256.5943298339843750
 20
          162.8773651123046875
 40
            2.5000000000000000
 50
            0.0000000000000000
 51
           90.0000000000000000
  0
ARC
  8
1
 62
     3
 10
          131.5943298339843750
 20
          162.8773651123046875
 40
            2.5000000000000000
 50
           90.0000000000000000
 51
          180.0000000000000000
  0
ARC
  8
1
 62
     3
 10
          234.5943298339843750
 20
           76.8773651123046875
 40
            2.5000000000000000
 50
         -180.0000000000000000
 51
          -90.0000000000000000
  0
ARC
  8
1
 62
     3
 10
          153.5943298339843750
 20
           76.8773651123046875
 40
            2.5000000000000000
 50
          -90.0000000000000000
 51
            0.0000000000000000
  0
ARC
  8
1
 62
     3
 10
          145.6302282188466108
 20
          174.3773651123046875
 40
            2.0000000000000000
 50
           90.0000000000000000
 51
          120.0000000000001421
  0
ARC
  8
1
 62
     3
 10
          131.0943298339843750
 20
          165.9850602668914519
 40
            2.0000000000000000
 50
          120.0000000000001421
 51
          180.0000000000000000
  0
ARC
  8
1
 62
     3
 10
          145.6302282188466108
 20
          174.3773651123046875
 40
            2.0000000000000000
 50
           90.0000000000000000
 51
          120.0000000000001421
  0
ARC
  8
1
 62
     3
 10
          242.7954278312861334
 20
          174.3773651123046875
 40
            2.0000000000000000
 50
           72.9999999999997726
 51
           90.0000000000000000
  0
ARC
  8
1
 62
     3
 10
          242.7954278312861334
 20
          174.3773651123046875
 40
            2.0000000000000000
 50
           72.9999999999997726
 51
           90.0000000000000000
  0
ARC
  8
1
 62
     3
 10
          241.0943298339843750
 20
          121.7216866408132034
 40
            2.0000000000000000
 50
          -19.5366549381286845
 51
            0.0000000000000000
  0
ARC
  8
1
 62
     3
 10
          241.0943298339843750
 20
          121.7216866408132034
 40
            2.0000000000000000
 50
          -19.5366549381286845
 51
            0.0000000000000000
  0
ARC
  8
1
 62
     3
 10
          153.0943298339843750
 20
          122.7546512263388934
 40
            8.0000000000000000
 50
          180.0000000000000000
 51
          199.5366549381283505
  0
ARC
  8
1
 62
     3
 10
          235.0943298339843750
 20
          122.7546512263388934
 40
            8.0000000000000000
 50
          -19.5366549381283576
 51
            0.0000000000000000
  0
ARC
  8
1
 62
     3
 10
          130.0943298339843750
 20
           73.3773651123046875
 40
            1.0000000000000000
 50
           90.0000000000000000
 51
          180.0000000000000000
  0
ARC
  8
1
 62
     3
 10
          258.0943298339843750
 20
           73.3773651123046875
 40
            1.0000000000000000
 50
            0.0000000000000000
 51
           90.0000000000000000
  0
ARC
  8
1
 62
     3
 10
          142.5943298339843750
 20
          342.0660552978515625
 40
            2.5000000000000000
 50
          -90.0000000000000000
 51
            0.0000000000000000
  0
ARC
  8
1
 62
     3
 10
          131.5943298339843466
 20
          351.0660552978515625
 40
            2.5000000000000000
 50
           90.0000000000000000
 51
          180.0000000000000000
  0
ARC
  8
1
 62
     3
 10
          256.5943298339843750
 20
          351.0660552978515625
 40
            2.5000000000000000
 50
            0.0000000000000000
 51
           90.0000000000000000
  0
ARC
  8
1
 62
     3
 10
          245.5943298339843750
 20
          342.0660552978515625
 40
            2.5000000000000000
 50
          180.0000000000000000
 51
          270.0000000000000000
  0
ARC
  8
1
 62
     3
 10
          245.5943298339843750
 20
          255.0660552978515625
 40
            2.5000000000000000
 50
           90.0000000000000000
 51
          180.0000000000000000
  0
ARC
  8
1
 62
     3
 10
          256.5943298339843750
 20
          246.0660552978515625
 40
            2.5000000000000000
 50
          -90.0000000000000000
 51
            0.0000000000000000
  0
ARC
  8
1
 62
     3
 10
          142.5943298339843750
 20
          255.0660552978515625
 40
            2.5000000000000000
 50
            0.0000000000000000
 51
           90.0000000000000000
  0
ARC
  8
1
 62
     3
 10
          131.5943298339843750
 20
          246.0660552978515625
 40
            2.5000000000000000
 50
         -180.0000000000000000
 51
          -90.0000000000000000
  0
ARC
  8
1
 62
     3
 10
          131.5943298339843750
 20
          260.0660552978515625
 40
            2.5000000000000000
 50
          180.0000000000000000
 51
          270.0000000000000000
  0
ARC
  8
1
 62
     3
 10
          256.5943298339843750
 20
          260.0660552978515625
 40
            2.5000000000000000
 50
          -90.0000000000000000
 51
            0.0000000000000000
  0
ARC
  8
1
 62
     3
 10
          240.5943298339843750
 20
          246.0660552978515625
 40
            2.5000000000000000
 50
          -90.0000000000000000
 51
            0.0000000000000000
  0
ARC
  8
1
 62
     3
 10
          147.5943298339843750
 20
          246.0660552978515625
 40
            2.5000000000000000
 50
         -180.0000000000000000
 51
          -90.0000000000000000
  0
ARC
  8
1
 62
     3
 10
          131.5943298339843466
 20
          337.0660552978515625
 40
            2.5000000000000000
 50
           90.0000000000000000
 51
          180.0000000000000000
  0
ARC
  8
1
 62
     3
 10
          147.5943298339843750
 20
          351.0660552978515625
 40
            2.5000000000000000
 50
           90.0000000000000000
 51
          180.0000000000000000
  0
ARC
  8
1
 62
     3
 10
          240.5943298339843750
 20
          351.0660552978515625
 40
            2.5000000000000000
 50
            0.0000000000000000
 51
           90.0000000000000000
  0
ARC
  8
1
 62
     3
 10
          256.5943298339843750
 20
          337.0660552978515625
 40
            2.5000000000000000
 50
            0.0000000000000000
 51
           90.0000000000000000
  0
ARC
  8
1
 62
     3
 10
          389.2452697753906250
 20
           89.4366196585121429
 40
           10.0000000000000000
 50
            0.0000000000000000
 51
           40.0000000000000142
  0
ARC
  8
1
 62
     3
 10
          467.2452697753906250
 20
           89.4366196585121429
 40
           10.0000000000000000
 50
          140.0000000000000000
 51
          180.0000000000000000
  0
ARC
  8
1
 62
     3
 10
          390.2452697753906250
 20
          108.4692758151032592
 40
            3.0000000000000000
 50
         -180.0000000000000000
 51
         -139.9999999999999147
  0
ARC
  8
1
 62
     3
 10
          466.2452697753906250
 20
          108.4692758151032592
 40
            3.0000000000000000
 50
          -40.0000000000000924
 51
            0.0000000000000000
  0
ARC
  8
1
 62
     3
 10
          375.7452697753906250
 20
          162.8773651123046875
 40
            2.5000000000000000
 50
           90.0000000000000000
 51
          180.0000000000000000
  0
ARC
  8
1
 62
     3
 10
          389.7452697753906250
 20
          162.8773651123046875
 40
            2.5000000000000000
 50
           90.0000000000000000
 51
          180.0000000000000000
  0
ARC
  8
1
 62
     3
 10
          466.7452697753906250
 20
          162.8773651123046875
 40
            2.5000000000000000
 50
            0.0000000000000000
 51
           90.0000000000000000
  0
ARC
  8
1
 62
     3
 10
          480.7452697753906250
 20
          162.8773651123046875
 40
            2.5000000000000000
 50
            0.0000000000000000
 51
           90.0000000000000000
  0
ARC
  8
1
 62
     3
 10
          396.7452697753906250
 20
           76.8773651123046875
 40
            2.5000000000000000
 50
          -90.0000000000000000
 51
            0.0000000000000000
  0
ARC
  8
1
 62
     3
 10
          459.7452697753906250
 20
           76.8773651123047017
 40
            2.5000000000000000
 50
         -180.0000000000000000
 51
          -90.0000000000000000
  0
ARC
  8
1
 62
     3
 10
          374.2452697753906250
 20
           73.3773651123047159
 40
            1.0000000000000000
 50
           90.0000000000000000
 51
          180.0000000000000000
  0
ARC
  8
1
 62
     3
 10
          482.2452697753906250
 20
           73.3773651123047017
 40
            1.0000000000000000
 50
            0.0000000000000000
 51
           90.0000000000000000
  0
ARC
  8
1
 62
     3
 10
          390.6670665451151763
 20
          166.3773651123046875
 40
            1.0000000000000000
 50
          -90.0000000000000000
 51
          -30.0000000000005400
  0
ARC
  8
1
 62
     3
 10
          465.8234730056660737
 20
          166.3773651123046875
 40
            1.0000000000000000
 50
         -149.9999999999994600
 51
          -90.0000000000000000
  0
ARC
  8
1
 62
     3
 10
          398.7499703137698930
 20
          174.3773651123046875
 40
            2.0000000000000000
 50
           90.0000000000000000
 51
          150.0000000000002842
  0
ARC
  8
1
 62
     3
 10
          457.7405692370113570
 20
          174.3773651123046875
 40
            2.0000000000000000
 50
           29.9999999999997300
 51
           90.0000000000000000
  0
ARC
  8
1
 62
     3
 10
          428.2452697753906250
 20
          126.3773651123046875
 40
           37.0000000000000000
 50
         -178.4512768327571450
 51
           -1.5487231672428265
  0
ARC
  8
1
 62
     3
 10
          257.0943298339843750
 20
          166.0627003919485674
 40
            2.0000000000000000
 50
            0.0000000000000000
 51
           59.9999999999998650
  0
ARC
  8
1
 62
     3
 10
          139.0943298339843750
 20
          343.5660552978515625
 40
            4.5000000000000000
 50
          -62.7339555492671934
 51
          242.7339555492671934
  0
ARC
  8
1
 62
     3
 10
          249.0943298339843750
 20
          343.5660552978515625
 40
            4.5000000000000000
 50
          -62.7339555492671934
 51
          242.7339555492671934
  0
ARC
  8
1
 62
     3
 10
          139.0943298339843750
 20
          253.5660552978515625
 40
            4.5000000000000000
 50
         -242.7339555492672503
 51
           62.7339555492671934
  0
ARC
  8
1
 62
     3
 10
          249.0943298339843750
 20
          253.5660552978515625
 40
            4.5000000000000000
 50
         -242.7339555492672503
 51
           62.7339555492671934
  0
ARC
  8
1
 62
     3
 10
          428.2452697753906250
 20
          126.3773651123046875
 40
           37.0000000000000000
 50
            1.5487231672428274
 51
          178.4512768327570882
  0
CIRCLE
  8
1
 62
     3
 10
          234.0943298339843750
 20
          344.5660552978515625
 40
            6.5000000000000000
  0
CIRCLE
  8
1
 62
     3
 10
          234.0943298339843750
 20
          344.5660552978515625
 40
            5.6299999999999999
  0
CIRCLE
  8
1
 62
     3
 10
          234.0943298339843750
 20
          252.5660552978515625
 40
            6.5000000000000000
  0
CIRCLE
  8
1
 62
     3
 10
          234.0943298339843750
 20
          252.5660552978515625
 40
            5.6299999999999999
  0
CIRCLE
  8
1
 62
     3
 10
          154.0943298339844034
 20
          252.5660552978515625
 40
            6.5000000000000000
  0
CIRCLE
  8
1
 62
     3
 10
          154.0943298339844034
 20
          252.5660552978515625
 40
            5.6299999999999999
  0
CIRCLE
  8
1
 62
     3
 10
          154.0943298339843750
 20
          344.5660552978515625
 40
            6.5000000000000000
  0
CIRCLE
  8
1
 62
     3
 10
          154.0943298339843750
 20
          344.5660552978515625
 40
            5.6299999999999999
  0
POLYLINE
  8
1
 66
     1
 70
     1
 62
     3
  0
VERTEX
  8
1
 10
          237.0943298339843750
 20
          342.8340032978515524
  0
VERTEX
  8
1
 10
          237.0943298339843750
 20
          346.2981072978515726
  0
VERTEX
  8
1
 10
          234.0943298339843750
 20
          348.0301552978515929
  0
VERTEX
  8
1
 10
          231.0943298339843750
 20
          346.2981072978515726
  0
VERTEX
  8
1
 10
          231.0943298339843750
 20
          342.8340032978515524
  0
VERTEX
  8
1
 10
          234.0943298339843750
 20
          341.1019512978515422
  0
VERTEX
  8
1
 10
          237.0943298339843750
 20
          342.8340032978515524
  0
SEQEND
  0
POLYLINE
  8
1
 66
     1
 70
     1
 62
     3
  0
VERTEX
  8
1
 10
          237.0943298339843750
 20
          250.8340032978515524
  0
VERTEX
  8
1
 10
          237.0943298339843750
 20
          254.2981072978515726
  0
VERTEX
  8
1
 10
          234.0943298339843750
 20
          256.0301552978515929
  0
VERTEX
  8
1
 10
          231.0943298339843750
 20
          254.2981072978515726
  0
VERTEX
  8
1
 10
          231.0943298339843750
 20
          250.8340032978515524
  0
VERTEX
  8
1
 10
          234.0943298339843750
 20
          249.1019512978515422
  0
VERTEX
  8
1
 10
          237.0943298339843750
 20
          250.8340032978515524
  0
SEQEND
  0
POLYLINE
  8
1
 66
     1
 70
     1
 62
     3
  0
VERTEX
  8
1
 10
          157.0943298339844034
 20
          250.8340032978515524
  0
VERTEX
  8
1
 10
          157.0943298339844034
 20
          254.2981072978515726
  0
VERTEX
  8
1
 10
          154.0943298339844034
 20
          256.0301552978515929
  0
VERTEX
  8
1
 10
          151.0943298339844034
 20
          254.2981072978515726
  0
VERTEX
  8
1
 10
          151.0943298339844034
 20
          250.8340032978515524
  0
VERTEX
  8
1
 10
          154.0943298339844034
 20
          249.1019512978515422
  0
VERTEX
  8
1
 10
          157.0943298339844034
 20
          250.8340032978515524
  0
SEQEND
  0
POLYLINE
  8
1
 66
     1
 70
     1
 62
     3
  0
VERTEX
  8
1
 10
          157.0943298339843750
 20
          342.8340032978515524
  0
VERTEX
  8
1
 10
          157.0943298339843750
 20
          346.2981072978515726
  0
VERTEX
  8
1
 10
          154.0943298339843750
 20
          348.0301552978515929
  0
VERTEX
  8
1
 10
          151.0943298339843750
 20
          346.2981072978515726
  0
VERTEX
  8
1
 10
          151.0943298339843750
 20
          342.8340032978515524
  0
VERTEX
  8
1
 10
          154.0943298339843750
 20
          341.1019512978515422
  0
VERTEX
  8
1
 10
          157.0943298339843750
 20
          342.8340032978515524
  0
SEQEND
  0
TEXT
  8
1
 62
     3
 10
          357.5282897949218750
 20
          245.3396301269531250
 40
            5.0000000000000000
  1
LC-74
 50
            0.0000000000000000
 41
            0.6720000000000000
  7
STANDARD
  0
TEXT
  8
1
 62
     3
 10
          358.0490295410156705
 20
          237.8226501464843921
 40
            5.0000000000000000
  1
1996.07.03
 50
            0.0000000000000000
 41
            0.6720000000000000
  7
STANDARD
  0
ENDSEC
  0
EOF
