  0
SECTION
  2
HEADER
  9
$EXTMIN
 10
            0.0000000000000000
 20
            0.0000000000000000
  9
$EXTMAX
 10
          594.0000000000000000
 20
          420.0000000000000000
  9
$LIMMIN
 10
            0.0000000000000000
 20
            0.0000000000000000
  9
$LIMMAX
 10
          594.0000000000000000
 20
          420.0000000000000000
  0
ENDSEC
  0
SECTION
  2
TABLES
  0
TABLE
  2
LTYPE
 70
     4
  0
LTYPE
  2
CONTINUOUS
 70
    64
  3
CONTINUOUS
 72
    65
 73
     0
 40
            0.0000000000000000
  0
LTYPE
  2
DASHED
 70
    64
  3
DASHED
 72
    65
 73
     2
 40
            3.0000000000000000
 49
            2.0000000000000000
 49
           -1.0000000000000000
  0
LTYPE
  2
CENTER
 70
    64
  3
CENTER
 72
    65
 73
     4
 40
           12.0000000000000000
 49
            9.0000000000000000
 49
           -1.0000000000000000
 49
            1.0000000000000000
 49
           -1.0000000000000000
  0
LTYPE
  2
PHANTOM
 70
    64
  3
PHANTOM
 72
    65
 73
     6
 40
           20.0000000000000000
 49
           15.0000000000000000
 49
           -1.0000000000000000
 49
            1.0000000000000000
 49
           -1.0000000000000000
 49
            1.0000000000000000
 49
           -1.0000000000000000
  0
ENDTAB
  0
TABLE
  2
LAYER
 70
     1
  0
LAYER
  2
1
 70
    64
 62
     7
  6
CONTINUOUS
  0
ENDTAB
  0
TABLE
  2
STYLE
 70
     1
  0
STYLE
  2
STANDARD
 70
    64
 40
            0.0000000000000000
 41
            1.0000000000000000
 50
            0.0000000000000000
 71
     0
 42
            0.2500000000000000
  3
TXT
  4
BIGFONT
  0
ENDTAB
  0
ENDSEC
  0
SECTION
  2
BLOCKS
  0
ENDSEC
  0
SECTION
  2
ENTITIES
  0
LINE
  8
1
  6
CENTER
 62
     1
 10
          122.4280776977539062
 20
          119.5849037170410156
 11
          271.3440856933593750
 21
          119.5849037170410156
  0
LINE
  8
1
 62
     3
 10
          125.9245185852050781
 20
           49.5849037170410156
 11
          190.9245185852050781
 21
           49.5849037170410156
  0
LINE
  8
1
 62
     3
 10
          126.9245185852050781
 20
           69.5849037170410156
 11
          264.9245185852050781
 21
           69.5849037170410156
  0
LINE
  8
1
 62
     3
 10
          128.9245185852050781
 20
          157.5849037170410156
 11
          262.9245185852050781
 21
          157.5849037170410156
  0
LINE
  8
1
 62
     3
 10
          136.9245185852050781
 20
          176.5849037170410440
 11
          254.9245185852050781
 21
          176.5849037170410440
  0
LINE
  8
1
 62
     3
 10
          125.9245185852050781
 20
           49.5849037170410156
 11
          125.9245185852050781
 21
          118.0849037170410156
  0
LINE
  8
1
 62
     3
 10
          265.9245185852050781
 20
           49.5849037170410156
 11
          265.9245185852050781
 21
          118.0849037170410156
  0
LINE
  8
1
  6
CENTER
 62
     1
 10
          123.0434341430664062
 20
          294.3773536682128906
 11
          270.1133728027343750
 21
          294.3773536682128906
  0
LINE
  8
1
 62
     3
 10
          128.9245185852050781
 20
          360.3773536682128906
 11
          262.9245185852050781
 21
          360.3773536682128906
  0
LINE
  8
1
 62
     3
 10
          128.9245185852050781
 20
          228.3773536682128906
 11
          262.9245185852050781
 21
          228.3773536682128906
  0
LINE
  8
1
 62
     3
 10
          125.9245185852050781
 20
          231.3773536682128906
 11
          125.9245185852050781
 21
          357.3773536682128906
  0
LINE
  8
1
 62
     3
 10
          265.9245185852050781
 20
          231.3773536682128906
 11
          265.9245185852050781
 21
          357.3773536682128906
  0
LINE
  8
1
  6
CENTER
 62
     1
 10
          363.0320434570312500
 20
          119.5849037160546828
 11
          502.7177429199218182
 21
          119.5849037160546828
  0
LINE
  8
1
 62
     3
 10
          365.8867835998535156
 20
           49.5849037170410156
 11
          426.8867835998535156
 21
           49.5849037170410156
  0
LINE
  8
1
 62
     3
 10
          366.8867835998535156
 20
           69.5849037170410156
 11
          388.8867835998535156
 21
           69.5849037170410156
  0
LINE
  8
1
 62
     3
 10
          367.8867835998535156
 20
          157.5849037170410156
 11
          384.7297292008416321
 21
          157.5849037170410156
  0
LINE
  8
1
 62
     3
 10
          398.5438379988653992
 20
          176.5849037170410156
 11
          465.2297292008416321
 21
          176.5849037170410156
  0
LINE
  8
1
  6
CENTER
 62
     1
 10
          431.8867835998535156
 20
           49.5849037170410156
 11
          431.8867835998535156
 21
          182.6719665527343750
  0
LINE
  8
1
 62
     3
 10
          174.9245185852050781
 20
           77.5849037170410156
 11
          174.9245185852050781
 21
           76.7171363830566406
  0
LINE
  8
1
 62
     3
 10
          141.9245185852050781
 20
          101.3372077941894531
 11
          141.9245185852050781
 21
          118.0849037170410156
  0
LINE
  8
1
 62
     3
 10
          249.9245185852050781
 20
          101.5849037170410156
 11
          249.9245185852050781
 21
          118.0849037170410156
  0
LINE
  8
1
 62
     3
 10
          216.9245185852050781
 20
           77.5849037170410156
 11
          216.9245185852050781
 21
           75.9814856001540306
  0
LINE
  8
1
 62
     3
 10
          169.7816399623007726
 20
           83.4550413980971371
 11
          169.6584630898987314
 21
           83.4998329880615131
  0
LINE
  8
1
 62
     3
 10
          146.5291796255411327
 20
           94.3411703323154143
 11
          169.6584630898987314
 21
           83.4998329880615131
  0
LINE
  8
1
 62
     3
 10
          245.3198575448690235
 20
           94.3411703323154143
 11
          222.1905740805114533
 21
           83.4998329880615131
  0
LINE
  8
1
 62
     3
 10
          136.9245185852050781
 20
          176.5849037170410440
 11
          125.9245185852050781
 21
          170.2340507559551668
  0
LINE
  8
1
 62
     3
 10
          254.9245185852050781
 20
          176.5849037170410440
 11
          265.9245185852050781
 21
          170.2340507559551668
  0
LINE
  8
1
 62
     3
 10
          190.9245185852050781
 20
           49.5849037170410156
 11
          190.9245185852050781
 21
           55.5849037170410156
  0
LINE
  8
1
 62
     3
 10
          200.9245185852050781
 20
           49.5849037170410156
 11
          200.9245185852050781
 21
           55.5849037170410156
  0
LINE
  8
1
 62
     3
 10
          190.9245185852050781
 20
           55.5849037170410156
 11
          200.9245185852050781
 21
           55.5849037170410156
  0
LINE
  8
1
 62
     3
 10
          200.9245185852050781
 20
           49.5849037170410156
 11
          265.9245185852050781
 21
           49.5849037170410156
  0
LINE
  8
1
 62
     3
 10
          136.9245185852050781
 20
          328.8773536682128906
 11
          254.9245185852050781
 21
          328.8773536682128906
  0
LINE
  8
1
 62
     3
 10
          136.9245185852050781
 20
          259.8773536682128906
 11
          254.9245185852050781
 21
          259.8773536682128906
  0
LINE
  8
1
 62
     3
 10
          125.9245185852050781
 20
          340.3773536682128906
 11
          265.9245185852050781
 21
          340.3773536682128906
  0
LINE
  8
1
 62
     3
 10
          125.9245185852050781
 20
          248.3773536682128906
 11
          265.9245185852050781
 21
          248.3773536682128906
  0
LINE
  8
1
 62
     3
 10
          136.9245185852050781
 20
          259.8773536682128906
 11
          136.9245185852050781
 21
          328.8773536682128906
  0
LINE
  8
1
 62
     3
 10
          254.9245185852050781
 20
          328.8773536682128906
 11
          254.9245185852050781
 21
          259.8773536682128906
  0
LINE
  8
1
 62
     3
 10
          127.9245185852050781
 20
          346.3773536682128906
 11
          138.9245185852050781
 21
          346.3773536682128906
  0
LINE
  8
1
 62
     3
 10
          127.9245185852050781
 20
          242.3773536682128906
 11
          138.9245185852050781
 21
          242.3773536682128906
  0
LINE
  8
1
 62
     3
 10
          252.9245185852050781
 20
          346.3773536682128906
 11
          263.9245185852050781
 21
          346.3773536682128906
  0
LINE
  8
1
 62
     3
 10
          252.9245185852050781
 20
          242.3773536682128906
 11
          263.9245185852050781
 21
          242.3773536682128906
  0
LINE
  8
1
 62
     3
 10
          141.9245185852050781
 20
          231.3773536682128906
 11
          141.9245185852050781
 21
          239.3773536682128906
  0
LINE
  8
1
 62
     3
 10
          249.9245185852050781
 20
          231.3773536682128906
 11
          249.9245185852050781
 21
          239.3773536682128906
  0
LINE
  8
1
 62
     3
 10
          141.9245185852050781
 20
          349.3773536682128906
 11
          141.9245185852050781
 21
          357.3773536682128906
  0
LINE
  8
1
 62
     3
 10
          249.9245185852050781
 20
          349.3773536682128906
 11
          249.9245185852050781
 21
          357.3773536682128906
  0
LINE
  8
1
 62
     3
 10
          379.8867835998535156
 20
           94.8275444041603066
 11
          379.8867835998535156
 21
          118.0849037160546828
  0
LINE
  8
1
 62
     3
 10
          483.8867835998535156
 20
           94.8275444041603066
 11
          483.8867835998535156
 21
          118.5849037160546828
  0
LINE
  8
1
 62
     3
 10
          396.8100253927503331
 20
          175.5818459655571928
 11
          386.4635418069566981
 21
          158.5879614685248384
  0
LINE
  8
1
 62
     3
 10
          466.9635418069566981
 20
          175.5818459655571928
 11
          477.3100253927503331
 21
          158.5879614685248384
  0
LINE
  8
1
 62
     3
 10
          367.8867835998535156
 20
           93.5849037170410156
 11
          379.8867835998535156
 21
           93.5849037170410156
  0
LINE
  8
1
 62
     3
 10
          391.8867835998535156
 20
           72.5849037170410156
 11
          391.8867835998535156
 21
           78.2711952180562776
  0
LINE
  8
1
 62
     3
 10
          471.8867835998535156
 20
           72.5849037170410156
 11
          471.8867835998535156
 21
           78.2711952180562776
  0
LINE
  8
1
 62
     3
 10
          389.5436378493458847
 20
           83.9280494675486466
 11
          380.7654632562938559
 21
           92.7062240606006753
  0
LINE
  8
1
 62
     3
 10
          474.2299293503611466
 20
           83.9280494675486466
 11
          483.0081039434131753
 21
           92.7062240606006753
  0
LINE
  8
1
 62
     3
 10
          483.8867835998535156
 20
           93.5849037170410156
 11
          495.8867835998535156
 21
           93.5849037170410156
  0
LINE
  8
1
 62
     3
 10
          474.8867835998535156
 20
           69.5849037170410156
 11
          496.8867835998535156
 21
           69.5849037170410156
  0
LINE
  8
1
 62
     3
 10
          365.8867835998535156
 20
           49.5849037170410156
 11
          365.8867835998535156
 21
          118.0849037160546828
  0
LINE
  8
1
 62
     3
 10
          497.8867835998535156
 20
           49.5849037170410156
 11
          497.8867835998535156
 21
          118.0849037160546828
  0
LINE
  8
1
 62
     3
 10
          395.9999999999999432
 20
          170.8867950439453125
 11
          468.1092224121093750
 21
          170.8867950439453125
  0
LINE
  8
1
 62
     3
 10
          426.8867835998535156
 20
           55.5849037170410156
 11
          436.8867835998535156
 21
           55.5849037170410156
  0
LINE
  8
1
 62
     3
 10
          426.8867835998535156
 20
           49.5849037170410156
 11
          426.8867835998535156
 21
           55.5849037170410156
  0
LINE
  8
1
 62
     3
 10
          436.8867835998535156
 20
           49.5849037170410156
 11
          436.8867835998535156
 21
           55.5849037170410156
  0
LINE
  8
1
 62
     3
 10
          436.8867835998535156
 20
           49.5849037170410156
 11
          497.8867835998535156
 21
           49.5849037170410156
  0
LINE
  8
1
 62
     3
 10
          365.8867835998535156
 20
          121.0849037160546828
 11
          365.8867835998535156
 21
          155.5849037170410156
  0
LINE
  8
1
 62
     3
 10
          379.8867835998535156
 20
          121.0849037160546828
 11
          379.8867835998535156
 21
          154.5849037170410156
  0
LINE
  8
1
 62
     3
 10
          483.8867835998535156
 20
          120.5849037160546828
 11
          483.8867835998535156
 21
          154.5849037170410156
  0
LINE
  8
1
 62
     3
 10
          497.8867835998535156
 20
          121.0849037160546828
 11
          497.8867835998535156
 21
          155.5849037170410156
  0
LINE
  8
1
 62
     3
 10
          365.8867835998535156
 20
          121.0849037160546828
 11
          385.9112466263716215
 21
          121.0849037160546828
  0
LINE
  8
1
 62
     3
 10
          365.8867835998535156
 20
          118.0849037160546828
 11
          385.9112466263716215
 21
          118.0849037160546828
  0
LINE
  8
1
 62
     3
 10
          125.9245185852050781
 20
          121.0849037170410156
 11
          265.9245185852050781
 21
          121.0849037170410156
  0
LINE
  8
1
 62
     3
 10
          125.9245185852050781
 20
          118.0849037170410156
 11
          265.9245185852050781
 21
          118.0849037170410156
  0
LINE
  8
1
 62
     3
 10
          125.9245185852050781
 20
          121.0849037170410156
 11
          125.9245185852050781
 21
          170.2269935607910156
  0
LINE
  8
1
 62
     3
 10
          141.9245185852050781
 20
          121.0849037170410156
 11
          141.9245185852050781
 21
          155.5849037170410156
  0
LINE
  8
1
 62
     3
 10
          249.9245185852050781
 20
          121.0849037170410156
 11
          249.9245185852050781
 21
          155.5849037170410156
  0
LINE
  8
1
 62
     3
 10
          265.9245185852050781
 20
          121.0849037170410156
 11
          265.9245185852050781
 21
          170.2340507559551668
  0
LINE
  8
1
 62
     3
 10
          478.8184509277343750
 20
          157.5849037170410156
 11
          495.8867835998535156
 21
          157.5849037170410156
  0
LINE
  8
1
 62
     3
 10
          477.8623205733354098
 20
          118.0849037160546828
 11
          497.8867835998535156
 21
          118.0849037160546828
  0
LINE
  8
1
 62
     3
 10
          477.8623205733354098
 20
          121.0849037160546828
 11
          497.8867835998535156
 21
          121.0849037160546828
  0
LINE
  8
1
  6
CENTER
 62
     1
 10
          129.4245185852050781
 20
          238.3773536682128906
 11
          142.4245185852050781
 21
          238.3773536682128906
  0
LINE
  8
1
  6
CENTER
 62
     1
 10
          135.9245185852050781
 20
          231.8773536682128906
 11
          135.9245185852050781
 21
          244.8773536682128906
  0
LINE
  8
1
  6
CENTER
 62
     1
 10
          129.4245185852050781
 20
          350.3773536682128906
 11
          142.4245185852050781
 21
          350.3773536682128906
  0
LINE
  8
1
  6
CENTER
 62
     1
 10
          135.9245185852050781
 20
          343.8773536682128906
 11
          135.9245185852050781
 21
          356.8773536682128906
  0
LINE
  8
1
  6
CENTER
 62
     1
 10
          249.4245185852050781
 20
          350.3773536682128906
 11
          262.4245185852050781
 21
          350.3773536682128906
  0
LINE
  8
1
  6
CENTER
 62
     1
 10
          255.9245185852050781
 20
          343.8773536682128906
 11
          255.9245185852050781
 21
          356.8773536682128906
  0
LINE
  8
1
  6
CENTER
 62
     1
 10
          249.4245185852050781
 20
          238.3773536682128906
 11
          262.4245185852050781
 21
          238.3773536682128906
  0
LINE
  8
1
  6
CENTER
 62
     1
 10
          255.9245185852050781
 20
          231.8773536682128906
 11
          255.9245185852050781
 21
          244.8773536682128906
  0
LINE
  8
1
 62
     3
 10
          235.2905235852050509
 20
          165.5849037170410156
 11
          234.4245185852050781
 21
          165.0849037170410156
  0
LINE
  8
1
 62
     3
 10
          246.5585175852050952
 20
          165.5849037170410156
 11
          235.2905235852050509
 21
          165.5849037170410156
  0
LINE
  8
1
 62
     3
 10
          234.4245295852050504
 20
          157.5849037170410156
 11
          234.4245185852050781
 21
          165.0849037170410156
  0
LINE
  8
1
 62
     3
 10
          247.4245185852050781
 20
          165.0849037170410156
 11
          246.5585175852050952
 21
          165.5849037170410156
  0
LINE
  8
1
 62
     3
 10
          234.4245185852050781
 20
          165.0849037170410156
 11
          247.4245185852050781
 21
          165.0849037170410156
  0
LINE
  8
1
 62
     3
 10
          247.4245185852050781
 20
          157.5849037170410156
 11
          247.4245185852050781
 21
          165.0849037170410156
  0
LINE
  8
1
 62
     3
 10
          145.2905235852050509
 20
          165.5849037170410156
 11
          144.4245185852050781
 21
          165.0849037170410156
  0
LINE
  8
1
 62
     3
 10
          156.5585175852050952
 20
          165.5849037170410156
 11
          145.2905235852050509
 21
          165.5849037170410156
  0
LINE
  8
1
 62
     3
 10
          144.4245295852050504
 20
          157.5849037170410156
 11
          144.4245185852050781
 21
          165.0849037170410156
  0
LINE
  8
1
 62
     3
 10
          157.4245185852050781
 20
          165.0849037170410156
 11
          156.5585175852050952
 21
          165.5849037170410156
  0
LINE
  8
1
 62
     3
 10
          144.4245185852050781
 20
          165.0849037170410156
 11
          157.4245185852050781
 21
          165.0849037170410156
  0
LINE
  8
1
 62
     3
 10
          157.4245185852050781
 20
          157.5849037170410156
 11
          157.4245185852050781
 21
          165.0849037170410156
  0
LINE
  8
1
  6
CENTER
 62
     1
 10
          135.9245185852050781
 20
           42.1402206420898438
 11
          135.9245185852050781
 21
           76.6001281738281250
  0
LINE
  8
1
  6
CENTER
 62
     1
 10
          255.9245185852050781
 20
           42.1402206420898438
 11
          255.9245185852050781
 21
           76.6001281738281250
  0
LINE
  8
1
  6
CENTER
 62
     1
 10
          375.8867835998535156
 20
           42.1402206420898438
 11
          375.8867835998535156
 21
           76.6001281738281250
  0
LINE
  8
1
  6
CENTER
 62
     1
 10
          487.8867835998534588
 20
           42.1402206420898438
 11
          487.8867835998534588
 21
           76.6001281738281250
  0
LINE
  8
1
 62
     3
 10
          370.2527885998534884
 20
          165.5849037170410156
 11
          369.3867835998535156
 21
          165.0849037170410156
  0
LINE
  8
1
 62
     3
 10
          381.5207825998535327
 20
          165.5849037170410156
 11
          370.2527885998534884
 21
          165.5849037170410156
  0
LINE
  8
1
 62
     3
 10
          369.3867945998534879
 20
          157.5849037170410156
 11
          369.3867835998535156
 21
          165.0849037170410156
  0
LINE
  8
1
 62
     3
 10
          382.3867835998535156
 20
          165.0849037170410156
 11
          381.5207825998535327
 21
          165.5849037170410156
  0
LINE
  8
1
 62
     3
 10
          369.3867835998535156
 20
          165.0849037170410156
 11
          382.3867835998535156
 21
          165.0849037170410156
  0
LINE
  8
1
 62
     3
 10
          382.3867835998535156
 20
          157.5849037170410156
 11
          382.3867835998535156
 21
          165.0849037170410156
  0
LINE
  8
1
 62
     3
 10
          482.2527885998534884
 20
          165.5849037170410156
 11
          481.3867835998535156
 21
          165.0849037170410156
  0
LINE
  8
1
 62
     3
 10
          493.5207825998535327
 20
          165.5849037170410156
 11
          482.2527885998534884
 21
          165.5849037170410156
  0
LINE
  8
1
 62
     3
 10
          481.3867945998534879
 20
          157.5849037170410156
 11
          481.3867835998535156
 21
          165.0849037170410156
  0
LINE
  8
1
 62
     3
 10
          494.3867835998535156
 20
          165.0849037170410156
 11
          493.5207825998535327
 21
          165.5849037170410156
  0
LINE
  8
1
 62
     3
 10
          481.3867835998535156
 20
          165.0849037170410156
 11
          494.3867835998535156
 21
          165.0849037170410156
  0
LINE
  8
1
 62
     3
 10
          494.3867835998535156
 20
          157.5849037170410156
 11
          494.3867835998535156
 21
          165.0849037170410156
  0
LINE
  8
1
 62
     3
 10
          254.9245185852050781
 20
          328.8773536682128906
 11
          265.9245185852050781
 21
          332.8810262451411290
  0
LINE
  8
1
 62
     3
 10
          254.9245185852050781
 20
          259.8773536682128906
 11
          265.9245185852050781
 21
          255.8736810912846522
  0
LINE
  8
1
 62
     3
 10
          136.9245185852050781
 20
          328.8773536682128906
 11
          125.9245185852050781
 21
          332.8810262451411290
  0
LINE
  8
1
 62
     3
 10
          136.9245185852050781
 20
          259.8773536682128906
 11
          125.9245185852050781
 21
          255.8736810912846522
  0
ARC
  8
1
 62
     3
 10
          149.9245185852050781
 20
          101.5849037170410156
 40
            8.0000000000000000
 50
          179.9999999999999716
 51
          244.8862095960340639
  0
ARC
  8
1
 62
     3
 10
          166.9245185852050781
 20
           75.9814856001540306
 40
            8.0000000000000000
 50
            0.0000000000000000
 51
           70.0168934781000587
  0
ARC
  8
1
 62
     3
 10
          224.9245185852050781
 20
           75.9814856001540306
 40
            8.0000000000000000
 50
          109.9831065218999413
 51
          180.0000000000000000
  0
ARC
  8
1
 62
     3
 10
          241.9245185852050781
 20
          101.5849037170410156
 40
            8.0000000000000000
 50
          -64.8862095960340071
 51
            0.0000000000000000
  0
ARC
  8
1
 62
     3
 10
          166.9245185852050781
 20
           77.5849037170410156
 40
            8.0000000000000000
 50
          -90.0000000000000000
 51
            0.0000000000000000
  0
ARC
  8
1
 62
     3
 10
          224.9245185852050781
 20
           77.5849037170410156
 40
            8.0000000000000000
 50
         -180.0000000000000000
 51
          -90.0000000000000000
  0
ARC
  8
1
 62
     3
 10
          128.9245185852050781
 20
          154.5849037170410156
 40
            3.0000000000000000
 50
           90.0000000000000000
 51
          180.0000000000000000
  0
ARC
  8
1
 62
     3
 10
          262.9245185852050781
 20
          154.5849037170410156
 40
            3.0000000000000000
 50
            0.0000000000000000
 51
           90.0000000000000000
  0
ARC
  8
1
 62
     3
 10
          143.9245185852050781
 20
          155.5849037170410156
 40
            2.0000000000000000
 50
           90.0000000000000000
 51
          180.0000000000000000
  0
ARC
  8
1
 62
     3
 10
          247.9245185852050781
 20
          155.5849037170410156
 40
            2.0000000000000000
 50
            0.0000000000000000
 51
           90.0000000000000000
  0
ARC
  8
1
 62
     3
 10
          126.9245185852050781
 20
           68.5849037170410156
 40
            1.0000000000000000
 50
           90.0000000000000000
 51
          180.0000000000000000
  0
ARC
  8
1
 62
     3
 10
          264.9245185852050781
 20
           68.5849037170410156
 40
            1.0000000000000000
 50
            0.0000000000000000
 51
           90.0000000000000000
  0
ARC
  8
1
 62
     3
 10
          138.9245185852050781
 20
          349.3773536682128906
 40
            3.0000000000000000
 50
          -90.0000000000000000
 51
            0.0000000000000000
  0
ARC
  8
1
 62
     3
 10
          252.9245185852050781
 20
          349.3773536682128906
 40
            3.0000000000000000
 50
          180.0000000000000000
 51
          270.0000000000000000
  0
ARC
  8
1
 62
     3
 10
          262.9245185852050781
 20
          357.3773536682128906
 40
            3.0000000000000000
 50
            0.0000000000000000
 51
           90.0000000000000000
  0
ARC
  8
1
 62
     3
 10
          128.9245185852050781
 20
          357.3773536682128906
 40
            3.0000000000000000
 50
           90.0000000000000000
 51
          180.0000000000000000
  0
ARC
  8
1
 62
     3
 10
          128.9245185852050781
 20
          231.3773536682128906
 40
            3.0000000000000000
 50
          180.0000000000000000
 51
          270.0000000000000000
  0
ARC
  8
1
 62
     3
 10
          138.9245185852050781
 20
          239.3773536682128906
 40
            3.0000000000000000
 50
            0.0000000000000000
 51
           90.0000000000000000
  0
ARC
  8
1
 62
     3
 10
          252.9245185852050781
 20
          239.3773536682128906
 40
            3.0000000000000000
 50
           90.0000000000000000
 51
          180.0000000000000000
  0
ARC
  8
1
 62
     3
 10
          262.9245185852050781
 20
          231.3773536682128906
 40
            3.0000000000000000
 50
          -90.0000000000000000
 51
            0.0000000000000000
  0
ARC
  8
1
 62
     3
 10
          144.9245185852050781
 20
          231.3773536682128906
 40
            3.0000000000000000
 50
         -180.0000000000000000
 51
          -90.0000000000000000
  0
ARC
  8
1
 62
     3
 10
          246.9245185852050781
 20
          231.3773536682128906
 40
            3.0000000000000000
 50
          -90.0000000000000000
 51
            0.0000000000000000
  0
ARC
  8
1
 62
     3
 10
          144.9245185852050781
 20
          357.3773536682128906
 40
            3.0000000000000000
 50
           90.0000000000000000
 51
          180.0000000000000000
  0
ARC
  8
1
 62
     3
 10
          246.9245185852050781
 20
          357.3773536682128906
 40
            3.0000000000000000
 50
            0.0000000000000000
 51
           90.0000000000000000
  0
ARC
  8
1
 62
     3
 10
          263.9245185852050781
 20
          244.3773536682128906
 40
            2.0000000000000000
 50
          -90.0000000000000000
 51
            0.0000000000000000
  0
ARC
  8
1
 62
     3
 10
          127.9245185852050781
 20
          244.3773536682128906
 40
            2.0000000000000000
 50
          180.0000000000000000
 51
          270.0000000000000000
  0
ARC
  8
1
 62
     3
 10
          127.9245185852050781
 20
          344.3773536682128906
 40
            2.0000000000000000
 50
           90.0000000000000000
 51
          180.0000000000000000
  0
ARC
  8
1
 62
     3
 10
          263.9245185852050781
 20
          344.3773536682128906
 40
            2.0000000000000000
 50
            0.0000000000000000
 51
           90.0000000000000000
  0
ARC
  8
1
 62
     3
 10
          479.0438379988653992
 20
          159.5849037170410156
 40
            2.0000000000000000
 50
         -150.1010981613850674
 51
          -90.0000000000000000
  0
ARC
  8
1
 62
     3
 10
          384.7297292008416321
 20
          159.5849037170410156
 40
            2.0000000000000000
 50
          -90.0000000000000000
 51
          -29.8989018386149183
  0
ARC
  8
1
 62
     3
 10
          495.8867835998535156
 20
          155.5849037170410156
 40
            2.0000000000000000
 50
            0.0000000000000000
 51
           90.0000000000000000
  0
ARC
  8
1
 62
     3
 10
          367.8867835998535156
 20
          155.5849037170410156
 40
            2.0000000000000000
 50
           90.0000000000000000
 51
          180.0000000000000000
  0
ARC
  8
1
 62
     3
 10
          398.5438379988653992
 20
          174.5849037170410156
 40
            2.0000000000000000
 50
           90.0000000000000000
 51
          150.1010981613850674
  0
ARC
  8
1
 62
     3
 10
          465.2297292008416321
 20
          174.5849037170410156
 40
            2.0000000000000000
 50
           29.8989018386149148
 51
           90.0000000000000000
  0
ARC
  8
1
 62
     3
 10
          388.8867835998535156
 20
           72.5849037170410156
 40
            3.0000000000000000
 50
          -90.0000000000000000
 51
            0.0000000000000000
  0
ARC
  8
1
 62
     3
 10
          474.8867835998535156
 20
           72.5849037170410156
 40
            3.0000000000000000
 50
         -180.0000000000000000
 51
          -90.0000000000000000
  0
ARC
  8
1
 62
     3
 10
          383.8867835998535156
 20
           78.2711952180562776
 40
            8.0000000000000000
 50
            0.0000000000000000
 51
           45.0000000000000000
  0
ARC
  8
1
 62
     3
 10
          479.8867835998535156
 20
           78.2711952180562776
 40
            8.0000000000000000
 50
          135.0000000000000000
 51
          180.0000000000000000
  0
ARC
  8
1
 62
     3
 10
          382.8867835998535156
 20
           94.8275444041603066
 40
            3.0000000000000000
 50
          180.0000000000000000
 51
          224.9999999999996021
  0
ARC
  8
1
 62
     3
 10
          480.8867835998535156
 20
           94.8275444041603066
 40
            3.0000000000000000
 50
          -44.9999999999996163
 51
            0.0000000000000000
  0
ARC
  8
1
 62
     3
 10
          382.8867835998535156
 20
          154.5849037170410156
 40
            3.0000000000000000
 50
           90.0000000000000000
 51
          180.0000000000000000
  0
ARC
  8
1
 62
     3
 10
          480.8867835998535156
 20
          154.5849037170410156
 40
            3.0000000000000000
 50
            0.0000000000000000
 51
           90.0000000000000000
  0
ARC
  8
1
 62
     3
 10
          366.8867835998535156
 20
           68.5849037170410156
 40
            1.0000000000000000
 50
           90.0000000000000000
 51
          180.0000000000000000
  0
ARC
  8
1
 62
     3
 10
          496.8867835998535156
 20
           68.5849037170410156
 40
            1.0000000000000000
 50
            0.0000000000000000
 51
           90.0000000000000000
  0
ARC
  8
1
 62
     3
 10
          431.8867835998535156
 20
          119.5849037160546828
 40
           46.0000000000000000
 50
         -178.1313280956515541
 51
           -1.2456585515941470
  0
ARC
  8
1
 62
     3
 10
          431.8867835998535156
 20
          119.5849037160546828
 40
           46.0000000000000000
 50
            1.2456585515941461
 51
          178.1313280956515541
  0
ARC
  8
1
 62
     3
 10
          135.9245185852050781
 20
          238.3773536682128906
 40
            4.5000000000000000
 50
         -242.7339555492672503
 51
           62.7339555492671934
  0
ARC
  8
1
 62
     3
 10
          135.9245185852050781
 20
          350.3773536682128906
 40
            4.5000000000000000
 50
          -62.7339555492671934
 51
          242.7339555492671934
  0
ARC
  8
1
 62
     3
 10
          255.9245185852050781
 20
          350.3773536682128906
 40
            4.5000000000000000
 50
          -62.7339555492671934
 51
          242.7339555492671934
  0
ARC
  8
1
 62
     3
 10
          255.9245185852050781
 20
          238.3773536682128906
 40
            4.5000000000000000
 50
         -242.7339555492672503
 51
           62.7339555492671934
  0
CIRCLE
  8
1
 62
     3
 10
          240.9245185852050781
 20
          238.3773536682128906
 40
            6.5000000000000000
  0
CIRCLE
  8
1
 62
     3
 10
          240.9245185852050781
 20
          238.3773536682128906
 40
            5.6299999999999999
  0
CIRCLE
  8
1
 62
     3
 10
          150.9245185852050781
 20
          238.3773536682128906
 40
            6.5000000000000000
  0
CIRCLE
  8
1
 62
     3
 10
          150.9245185852050781
 20
          238.3773536682128906
 40
            5.6299999999999999
  0
CIRCLE
  8
1
 62
     3
 10
          150.9245185852050781
 20
          350.3773536682128906
 40
            6.5000000000000000
  0
CIRCLE
  8
1
 62
     3
 10
          150.9245185852050781
 20
          350.3773536682128906
 40
            5.6299999999999999
  0
CIRCLE
  8
1
 62
     3
 10
          240.9245185852050781
 20
          350.3773536682128906
 40
            6.5000000000000000
  0
CIRCLE
  8
1
 62
     3
 10
          240.9245185852050781
 20
          350.3773536682128906
 40
            5.6299999999999999
  0
POLYLINE
  8
1
 66
     1
 70
     1
 62
     3
  0
VERTEX
  8
1
 10
          243.9245185852050781
 20
          236.6453016682128805
  0
VERTEX
  8
1
 10
          243.9245185852050781
 20
          240.1094056682129008
  0
VERTEX
  8
1
 10
          240.9245185852050781
 20
          241.8414536682129210
  0
VERTEX
  8
1
 10
          237.9245185852050781
 20
          240.1094056682129008
  0
VERTEX
  8
1
 10
          237.9245185852050781
 20
          236.6453016682128805
  0
VERTEX
  8
1
 10
          240.9245185852050781
 20
          234.9132496682128703
  0
VERTEX
  8
1
 10
          243.9245185852050781
 20
          236.6453016682128805
  0
SEQEND
  0
POLYLINE
  8
1
 66
     1
 70
     1
 62
     3
  0
VERTEX
  8
1
 10
          153.9245185852050781
 20
          236.6453016682128805
  0
VERTEX
  8
1
 10
          153.9245185852050781
 20
          240.1094056682129008
  0
VERTEX
  8
1
 10
          150.9245185852050781
 20
          241.8414536682129210
  0
VERTEX
  8
1
 10
          147.9245185852050781
 20
          240.1094056682129008
  0
VERTEX
  8
1
 10
          147.9245185852050781
 20
          236.6453016682128805
  0
VERTEX
  8
1
 10
          150.9245185852050781
 20
          234.9132496682128703
  0
VERTEX
  8
1
 10
          153.9245185852050781
 20
          236.6453016682128805
  0
SEQEND
  0
POLYLINE
  8
1
 66
     1
 70
     1
 62
     3
  0
VERTEX
  8
1
 10
          153.9245185852050781
 20
          348.6453016682128805
  0
VERTEX
  8
1
 10
          153.9245185852050781
 20
          352.1094056682129008
  0
VERTEX
  8
1
 10
          150.9245185852050781
 20
          353.8414536682129210
  0
VERTEX
  8
1
 10
          147.9245185852050781
 20
          352.1094056682129008
  0
VERTEX
  8
1
 10
          147.9245185852050781
 20
          348.6453016682128805
  0
VERTEX
  8
1
 10
          150.9245185852050781
 20
          346.9132496682128703
  0
VERTEX
  8
1
 10
          153.9245185852050781
 20
          348.6453016682128805
  0
SEQEND
  0
POLYLINE
  8
1
 66
     1
 70
     1
 62
     3
  0
VERTEX
  8
1
 10
          243.9245185852050781
 20
          348.6453016682128805
  0
VERTEX
  8
1
 10
          243.9245185852050781
 20
          352.1094056682129008
  0
VERTEX
  8
1
 10
          240.9245185852050781
 20
          353.8414536682129210
  0
VERTEX
  8
1
 10
          237.9245185852050781
 20
          352.1094056682129008
  0
VERTEX
  8
1
 10
          237.9245185852050781
 20
          348.6453016682128805
  0
VERTEX
  8
1
 10
          240.9245185852050781
 20
          346.9132496682128703
  0
VERTEX
  8
1
 10
          243.9245185852050781
 20
          348.6453016682128805
  0
SEQEND
  0
TEXT
  8
1
 62
     3
 10
          361.7546997070312500
 20
          239.0000000000000000
 40
            5.0000000000000000
  1
LC-92
 50
            0.0000000000000000
 41
            0.6720000000000000
  7
STANDARD
  0
TEXT
  8
1
 62
     3
 10
          362.0037597656250909
 20
          231.0830200195312614
 40
            5.0000000000000000
  1
1996.07.03
 50
            0.0000000000000000
 41
            0.6720000000000000
  7
STANDARD
  0
ENDSEC
  0
EOF
